U2

U2
I Still Havent Found What I Am Looking For Ver 3 (Guitar tab)

I still Haven't found what i am looking for by U2

This is a great song. This version is from the popmart tour. It is very simple.

Put Capo on first fret, no need to tune down here or on the second but you must tune down 1/2 a step if you do this.

All tab is with respect to the capo.

Murt Maher


1----------------4-----------------
2----5--5------5---5---------------
3--2--2--2---2-------2-------------
4----------------------------------x2
5----------------------------------
6----------------------------------


I have climbed the highest mountains

I have run through the fields


1--------------------4-----------------------------------4-----
2-------5--5-------5---5---------------------5--5------5---5---
3-----2--2--2----2------2------------------2--2--2---2-------2-
4---0----------0-----------------------------------------------
5----------------------------------------0----------0----------
6--------------------------------------------------------------


Only to be with you Only to be with you


1----------------4-----------------
2----5--5------5---5---------------
3--2--2--2---2-------2-------------
4---------------------------------- x2
5----------------------------------
6----------------------------------


I have run I have crawled

I have scaled these city walls



1--------------------4-----------------------------------4-----
2-------5--5-------5---5---------------------5--5------5---5---
3-----2--2--2----2------2------------------2--2--2---2-------2-
4---0----------0-----------------------------------------------
5----------------------------------------0----------0----------
6--------------------------------------------------------------


these city walls Only to be with you


1-----------------------------------------------
2-------5--5-------5--5-------5--5------5--5----
3-----2--2--2----2--4--2----2--2--2---2--2--2---
4--------------0-------------------------------- x2
5-------------------------0----------0----------
6---0-------------------------------------------


But I still haven't found

What I'm looking for

But I still haven't found

What I'm looking for


1----------------4-----------------
2----5--5------5---5---------------
3--2--2--2---2-------2-------------
4---------------------------------- x2
5----------------------------------
6----------------------------------


I have kissed honey lips

Felt the healing in her fingertips



1--------------------4-----------------------------------4-----
2-------5--5-------5---5---------------------5--5------5---5---
3-----2--2--2----2------2------------------2--2--2---2-------2-
4---0----------0-----------------------------------------------
5----------------------------------------0----------0----------
6--------------------------------------------------------------


It burned like fire This burning desire


1----------------4-----------------
2----5--5------5---5---------------
3--2--2--2---2-------2-------------
4---------------------------------- x2
5----------------------------------
6----------------------------------


I have spoken with the tongue of angels

I have held the hand of a devil


1--------------------4-----------------------------------4-----
2-------5--5-------5---5---------------------5--5------5---5---
3-----2--2--2----2------2------------------2--2--2---2-------2-
4---0----------0-----------------------------------------------
5----------------------------------------0----------0----------
6--------------------------------------------------------------


It was warm in the night I was cold as a stone


1-----------------------------------------------
2-------5--5-------5--5-------5--5------5--5----
3-----2--2--2----2--4--2----2--2--2---2--2--2---
4--------------0-------------------------------- x2
5-------------------------0----------0----------
6---0-------------------------------------------



But I still haven't found

What I'm looking for

But I still haven't found

What I'm looking for



1-------------------------------------------
2-----------3--3--2----2--2--3------3--3--2-
3-----------2--2--2----2--2--2------2--2--2-
4-----------2--2--2----2--2--2------2--2--2-
5-0-0-0-0-0---------------------------------
6-------------------------------------------


1----------------4-----------------
2----5--5------5---5---------------
3--2--2--2---2-------2-------------
4---------------------------------- x2
5----------------------------------
6----------------------------------


I believe in the Kingdom come

Then all the colours will bleed into one



1--------------------4-----------------------------------4-----
2-------5--5-------5---5---------------------5--5------5---5---
3-----2--2--2----2------2------------------2--2--2---2-------2-
4---0----------0-----------------------------------------------
5----------------------------------------0----------0----------
6--------------------------------------------------------------



bleed into one But yes I'm still running



1----------------4-----------------
2----5--5------5---5---------------
3--2--2--2---2-------2-------------
4---------------------------------- x2
5----------------------------------
6----------------------------------



You broke the bonds

You loosed the chains

You carried the cross

And my shame


1--------------------4-----------------------------------4-----
2-------5--5-------5---5---------------------5--5------5---5---
3-----2--2--2----2------2------------------2--2--2---2-------2-
4---0----------0-----------------------------------------------
5----------------------------------------0----------0----------
6--------------------------------------------------------------


And my shame You know I believe it


1-----------------------------------------------
2-------5--5-------5--5-------5--5------5--5----
3-----2--2--2----2--4--2----2--2--2---2--2--2---
4--------------0-------------------------------- x2
5-------------------------0----------0----------
6---0-------------------------------------------


But I still haven't found

What I'm looking for

But I still haven't found

What I'm looking for

[PALM MUTE]

1-----------------------------------------------
2-----------------------------------------------
3-----------------------------------------------
4-----------0-0-0-0----------------------------- x2
5--------------------0-0-0-0-0----0-0-0-0-0-----
6---0-0-0-0-------------------------------------

OptimusPrime

Submitted by OptimusPrime at Wed 19 Mar, 2003 5:12 pm

Author: ?
Composer: ?
Publisher: ?
Language: English

Reactions

CommonCrawl [Bot]

Follow Muzikum