U2

U2
If You Wear That Velvet Dress (Guitar tab)

IF YOU WEAR THAT VELVET DRESS

Music by U2 - Lyrics by Bono and The Edge

(LIVE VERSION FROM POPMART TOUR - 1997)



[Tune down your guitar 1/2 step.]

(Heavy distortion from Discotheque)

1------------------------
2------------------------
3------------------------
4------------------------
5------------------------
6-------7----5----4----3-

Tonight the Moon is playing tricks again
Feeling sea sick again
And the whole world could just dissolve
Into a glass of water

I've been good
'Cause I know you don't want me to
Do you really want me to be blue as you
It's her daylight that gets me through

1------2-----2----------0-----3-----
2----3---3-----3------0---0-----3---
3--4-------2-----2--1-------0-----0- x2
4-----------------------------------
5-----------------------------------
6-----------------------------------

But if you wear that velvet dress

1----2--------2---------0--------3-----
2------3--------3---------0--------3---
3--4-----4--2-----2--1------0--0-----0- x2
4--------------------------------------
5--------------------------------------
6--------------------------------------

If you wear that velvet dress

1------7----10-9-7----7-------
2----7---7---------10---7---7-
3--7----------------------7---
4-----------------------------
5-----------------------------
6-----------------------------

Tonight the moon is a mirrorball
Light flickers from across the hall
Who'll catch the star when it falls

1------2-----2----------0-----3-----
2----3---3-----3------0---0-----3---
3--4-------2-----2--1-------0-----0- x2
4-----------------------------------
5-----------------------------------
6-----------------------------------

If you wear that velvet dress

1----2--------2---------0--------3-----
2------3--------3---------0--------3---
3--4-----4--2-----2--1------0--0-----0- x4
4--------------------------------------
5--------------------------------------
6--------------------------------------

If you wear that velvet dress
that velvet dress
that velvet dress
that velvet dress



zooman@exploit.it

OptimusPrime

Submitted by OptimusPrime at Sun 01 Dec, 2002 4:58 pm

Author: ?
Composer: ?
Publisher: ?
Language: English
Available on: Muchas Gracias Mexico (Cd 2) (1997)

Reactions

CommonCrawl [Bot]

Follow Muzikum