U2

U2
The Wanderer (Bass tab)

U2 "The wanderer" -BASS TAB
---------------------------
Tune down 1/2 step eb ab db gb
Another dead easy song! Simple but effective

Main riff:
|-----------------------------|
|---------------10-10-10-7----|
|-10-10-10-7---------------10-|
|------------10---------------|

Chorus:
|-------------|---------------|---------------|-------------------------|
|----------10-|-10-10-10-7----|---------------|-------------------------|
|-7-7-7-10----|------------10-|-10-10-10-7----|-------------------------|
|-------------|---------------|------------10-|-10-10-10-10-10-10-10-10-|



h = hammeron
p = pulloff
~ = vibrato
/ = slide up
\ = slide down
(X)= hold note (let ring)

Tabbed by Mark Linwood

Hint suggesstions or comments to (Rlinwood@powerup.com.au)
I will reply to all emails

OptimusPrime

Submitted by OptimusPrime at Sun 01 Dec, 2002 4:57 pm

Author: ?
Composer: ?
Publisher: ?
Language: English
Available on: Zooropa - CD 2 (2018)

Reactions

CommonCrawl [Bot]

Follow Muzikum