U2

U2
Some Days Are Better Than Others (Bass tab)

Song Title: Some Days Are Better Than Others
Artist: U2
----------------------------------------------


This is the tab for "Some Days Are Better Than Others"
from the U2 album Zooropa.


I play this with my bass tuned down a 1/2 step.

------------------------------------------------------
Intro:

|--------------------|
|--11----9-9-9-11----|
|-----11-------------|
|-----------------9--|

After this, there are basically four parts to the song.
It's pretty repetitive, and would be a waste of space to
type them all out, so I split them into sections.

Part A:

|----------------------|
|--11----9-9-9-11------|
|-----11---------------|
|-----------------9-9--|

Part B:

|---------------|
|---------------|
|--11/4--4\14---|
|---------------|

Part C:

|-------------------|
|-------------------|
|--9-9-9-9----------|
|----------7-7-7-7--|

Part D:

|-------------------|
|-------------------|
|-------------------|
|--4-4-4-4-7-7-7-7--|



The progression is like this:

Intro
Ax5 B Ax3 B A C A C Ax3 B Ax3
B A C A C Ax5 D Ax3 D Ax3 D A
C A C A C A C A D A D A D A
D A C A
Fade...


It looks like kind of a mess, but it's really easy if you
listen to the song and get a feel for it.


--------------------------------------------------------------

Submitted by: Pete White (donpedro@juno.com)

OptimusPrime

Submitted by OptimusPrime at Sun 01 Dec, 2002 4:57 pm

Author: ?
Composer: ?
Publisher: ?
Language: English

Reactions

CommonCrawl [Bot]

Follow Muzikum