Bowling For Soup

Bowling For Soup
Bitch Song (Guitar tab)

Tabed out by Aaron Horn
Hey to Kelly and the guys in our band
as far as i can tell everything is perfect except mabey the intro


Key
\=slide
bold numbers=palm muting
x=dead notes





(intro)
-------2-2\-8-8-2-2---------------2-2\8-8-10-10---------------------------------------
-------2-2\-8-8-2-2---------------2-2\8-8-10-10---------------------------------------
---------------------------------------------------------------------------------------------
-----------------------------7---------------------------5---------------------------------
--5--------------------------5---------------------------3----let ring--------------------
--3------------------------------------------------------------------------------------------



(main riff) x1
---------------------------------------------------------------------------------------------
---------------------------------------------------------------------------------------------
---------------------------------------------------------------------------------------------
-----------------7-7-7-7-------5-5-5-5-5-5-5-5-5-5---------------------------------
--5-5-5-5-x------5-5-5-5-------3-3-3-3-3-3-3-3-3-3---------------------------------
--3-3-3-3-x--------------------------------------------------------------------------------



-------------------------------------------------------------------------------------------
-------------------------------------------------------------------------------------------
-------------------------------------------------------------------------------------------
--------7-----------------------5---------------------------------------------------------
--------5-----------------------3--let ring----------------------------------------------
-------------------------------------------------------------------------------------------
if i speak to you...............pissed



----------------------------------------------------------------------------------------------
----------------------------------------------------------------------------------------------
-------------------------------------Palm Mute---------------------------------------------------------
------palm mute---------------7--7-7-7-7-7-7-7-7----------5---------------------
---5--5-5-5-5-5-5-5-5---------5--5-5-5-5-5-5-5-5----------3--let ring----------
---3--3-3-3-3-3-3-3-3------------------------------------------------------------------


(main riff) x3
---------------------------------------------------------------------------------------------
---------------------------------------------------------------------------------------------
---------------------------------------------------------------------------------------------
-----------------7-7-7-7-------5-5-5-5-5-5-5-5-5-5---------------------------------
--5-5-5-5-x------5-5-5-5-------3-3-3-3-3-3-3-3-3-3---------------------------------
--3-3-3-3-x--------------------------------------------------------------------------------



-----------------------------------------------------------------------------------------------------------------
-----------------------------------------------------------------------------------------------------------------
----------------------------------Palm Mute---------------Palm Mute----------------------------------------------------------------
--------palm Mute-------------7-7-7-7-7-7-7-7-7-----5-5-5-5-5-5-5-5-5-5-5-5-5-5-5-5----
---5--5-5-5-5-5-5-5-5---------5-5-5-5-5-5-5-5-5-----3-3-3-3-3-3-3-3-3-3-3-3-3-3-3-3-----
---3--3-3-3-3-3-3-3-3--------------------------------------------------------------------


-------------------------------------------------------------------------------------------
-------------------------------------------------------------------------------------------
-------------------------------------------------------------------------------------------
-------------------------------------------7------------------------5-------------------
----------------------5--------------------5-let ring---------------3-let ring---------
----------------------3--let ring--------------------------------------------------------
telling me to grow up...............grow up...............cant wait



(main riff) x3
---------------------------------------------------------------------------------------------
---------------------------------------------------------------------------------------------
---------------------------------------------------------------------------------------------
-----------------7-7-7-7-------5-5-5-5-5-5-5-5-5-5---------------------------------
--5-5-5-5-x------5-5-5-5-------3-3-3-3-3-3-3-3-3-3---------------------------------
--3-3-3-3-x--------------------------------------------------------------------------------


(solo thingy) x3
---------------------------------------------------------------------------------------
---------------------------------------------------------------------------------------
-----------4----2----4----0----------------------------------------------------------
---------------------------------------------------------------------------------------
---------------------------------------------------------------------------------------
---------------------------------------------------------------------------------------




---------------------------------------------------------------------------------------
---------------------------------------------------------------------------------------
-----------------------------------------------------------------------------------------
-----------------7-7----5-5-5-5-------------------------------------------------------
---------5-5-----5-5----3-3-3-3--------------------------------------------------------
---------3-3-----------------------------------------------------------------------------





-----------------------------------------------------------------------------------------
-----------------------------------------------------------------------------------------
------------------------------------------------------------------------------------------
-----------------------7-7-----------------------------------5------------------
--------------5-5------5-5-strum real fast a few times-------3 let ring--------
--------------3-3------------------------------------------------------------------------





(main riff) x4
---------------------------------------------------------------------------------------------
---------------------------------------------------------------------------------------------
---------------------------------------------------------------------------------------------
-----------------7-7-7-7-------5-5-5-5-5-5-5-5-5-5---------------------------------
--5-5-5-5-x------5-5-5-5-------3-3-3-3-3-3-3-3-3-3---------------------------------
--3-3-3-3-x--------------------------------------------------------------------------------


(outro) let each note ring
---------------------------------------------------------------------------------------
---------------------------------------------------------------------------------------
---------------------------------------------------------------------------------
-----------------7------5--------------------------------------------------------------
-------5---------5------3----------------------------------------------------------------
-------3--------------------------------------------------------------------------------

OptimusPrime

Submitted by OptimusPrime at Sun 01 Dec, 2002 8:30 am

Author: ?
Composer: ?
Publisher: ?
Language: English

Reactions

CommonCrawl [Bot]

Follow Muzikum