The Bouncing Souls

The Bouncing Souls
Cracked (Guitar tab)

ARTSIST: Bouncing Souls
SONG: Cracked
ALBUM: s/t

FROM: punker@eboarding.net
Note: Listen to the Song befor you learn to play


Intro:

Hit the strings, but don't push them

e--------|
b--------|
g-----7--|
d-----7--|
a-----5--|
e--------|

Play normal

e------------------------------|
b------------------------------|
g-----7---10---5---7-----------|
d-----7---10---5---7-----------|
a-----5---8----3---5-----------|
e------------------------------| repeat once


Bridge: Play very fast

e----------------------------|
b----------------------------|
g-----7---9---10---5---7-----|
d-----7---9---10---5---7-----|
a-----5---7---8----3---5-----|
e----------------------------|


Verse: Play also fast

e----------------------------|
b----------------------------|
g-----7---9---10---5---7-----|
d-----7---9---10---5---7-----|
a-----5---7---8----3---5-----|
e----------------------------| repeat x6


Chours: Play slower/ palm mute

e------------------------------|
b------------------------------|
g-----7---10---5---7-----------|
d-----7---10---5---7-----------|
a-----5---8----3---5-----------|
e------------------------------| repeat x2


Verse: Play fast

e----------------------------|
b----------------------------|
g-----7---9---10---5---7-----|
d-----7---9---10---5---7-----|
a-----5---7---8----3---5-----|
e----------------------------| repeat x6


Chours: Play slower/ palm mute

e------------------------------|
b------------------------------|
g-----7---10---5---7-----------|
d-----7---10---5---7-----------|
a-----5---8----3---5-----------|
e------------------------------| repeat x2


Outro: Play f***ing fast

e----------------------------|
b----------------------------|
g-----7---9---10---5---7-----|
d-----7---9---10---5---7-----|
a-----5---7---8----3---5-----|
e----------------------------| repeat x5

OptimusPrime

Submitted by OptimusPrime at Sun 01 Dec, 2002 8:30 am

Author: ?
Composer: ?
Publisher: ?
Language: English

Reactions

CommonCrawl [Bot]

Follow Muzikum