The Bouncing Souls

The Bouncing Souls
Hopeless Romantic (Guitar tab)

e--------------------|
b--------------------|
g--9-9-9-9-9-9-9-9--o|intro
d--9-9-9-9-9-9-9-9--o|4x (eighth notes)
a--7-7-7-7-7-7-7-7---|
e--------------------|

e--------------------|--------------------|
b--------------------|--------------------|
g--9-9-9-9-9-9-9-9--o|-------------------o|main riff
d--9-9-9-9-9-9-9-9--o|--7-7-7-7-7-7-7-7--o|(eighth notes)
a--7-7-7-7-7-7-7-7---|--7-7-7-7-7-7-7-7---|
e--------------------|--5-5-5-5-5-5-5-5---|

e--------------------|--------------------|
b--------------------|--------------------|
g--9-9-9-9-9-9-9-9--o|-------------------o|
d--9-9-9-9-9-9-9-9--o|--7-7-7-7-7-7-7-7--o|(eighth notes)
a--7-7-7-7-7-7-7-7---|--7-7-7-7-7-7-7-7---|
e--------------------|--5-5-5-5-5-5-5-5---|

e--------------------|--------------------|
b--------------------|--------------------|
g--9-9-9-9-9-9-9-9--o|-------------------o|
d--9-9-9-9-9-9-9-9--o|--7-7-7-7-7-7-7-7--o|(eighth notes)
a--7-7-7-7-7-7-7-7---|--7-7-7-7-7-7-7-7---|
e--------------------|--5-5-5-5-5-5-5-5---|

e--------------------|--------------------|
b--------------------|--------------------|
g--9-9-9-9-9-9-9-9--o|-------------------o|
d--9-9-9-9-9-9-9-9--o|--7-7-7-7-7-7-7-7--o|(eighth notes)
a--7-7-7-7-7-7-7-7---|--7-7-7-7-7-7-7-7---|
e--------------------|--5-5-5-5-5-5-5-5---|

e--------------------|--------------------|
b--------------------|--------------------|
g--9-9-9-9-9-9-9-9---|--9-9-9-9-x-9-x-9---| \
d--9-9-9-9-9-9-9-9---|--9-9-9-9-x-9-x-9---|(eighth notes) |
a--7-7-7-7-7-7-7-7---|--7-7-7-7-x-7-x-7---| |
e--------------------|--------------------| |
|chorus
e--------------------|--------------------| |
b--------------------|--------------------| |
g--------------------|--------------------| |
d--7-7-7-7-7-7-7-7---|--7-7-7-9-x-9-x-9---|(eighth notes) /
a--7-7-7-7-7-7-7-7---|--7-7-7-9-x-9-x-9---|
e--5-5-5-5-5-5-5-5---|--5-5-5-7-x-7-x-7---|

OptimusPrime

Submitted by OptimusPrime at Sun 01 Dec, 2002 8:30 am

Author: ?
Composer: ?
Publisher: ?

Reactions

CommonCrawl [Bot]

Follow Muzikum