Boston

Boston
A Man Ill Never Be (Guitar tab)

Author/Artist: Boston
Title: A Man I'll Never Be
Album: Don't Look Back
-----------8-8------8-------|-10----10-10----|-8--8------8---7|8-----8-12---8-
-----------8------8------8--|--8-8---8--8---8|10-10-----10----|8-----8--------
-----------9----------------|----------------|-9------9-------|9-9---9--------
----------10---10-----10----|--9---9------9--|-7----7------7--|---------------
----------------------------|----------------|----------------|10--10----10---
----------------------------|----------------|----------------|---------------
If I said what's on my mind you'd turn and walk away

-10-----10---|-------10---------|---------------------|-1-----0---------------
-10-----10-12|-10----10-10------|-12-------12-12------|-1---1---1---3--1------
--7-7----7-12|-11----------11---|-12-------12-12------|-0-2---0---0-0---------
-------------|----------------12|-12-12-------------12|-----------------------
--9---9------|----12------------|-10----10-------10---|-----------------------
-----------12|-10---------------|---------------------|-------------3---------
disappearing way back in your dreams It's so

----------------|-----------------|-----------------|-------------------------
-1-----1--------|-3-----3-----0---|-1-----1-----1---|-1-----1-----------------
-0---0---0---0--|-0---0---0-----0-|-2---2---------2-|-0---0-------0-----------
---2-------2---2|---0-------0-----|---2-------2-----|---2-------2---2---------
-3--------------|-2---------------|-0-------0-------|-------------------------
----------------|-----------------|-----------------|-3-------3---------------
hard to be unkind so easy just to say that

-----------------|-----------------|---------------|-----0--------------------
-3-----3---------|-3-----3---------|-0-----0-------|-1-----1-----0------------
-2---2-----2---0-|---2-----2---2---|-0---0-----0---|-0-0---2-----0------------
---0-----0---2---|-0---0-----0---0-|---0-----0---0-|---------3----------------
-----------------|-----------------|---------------|--------------------------
-2---------------|-----------------|-3-------------|-3---------3--------------
every thing is jkust the way it seems

-1------------|------------------|-----0-----------|-----------0--------------
-1--------1---|-1-----0-----1----|-1-------0---3---|-----1-------0------------
-2----------2-|---0-----0-----0--|---0---0---0---0-|-2-----2-0-----0----------
-3--2---------|-----0-----0------|-----------------|---2----------------------
------3-------|------------------|-----------------|--------------------------
--------0-----|------------------|-----------------|--------------------------
You look up at me and somewhere in your mind you'll see

---------------|-------------|-----------------|------------------------------
-----1---------|-------1-----|-------1-----1---|-1-----0----------------------
-------2-----2-|-2---2-------|-----0---0-----0-|---------0---0----------------
---------3-2---|-3-3-----3---|---0-------0-----|---3-3-----0---0--------------
---3-----------|-----------3-|-----------------|------------------------------
-1-------------|-------------|-3---------------|------------------------------
a man I'll never be

-|----------------------------------------------------------------------------
-|----------------------------------------------------------------------------
-|-----------------------------------------7------7p5h7--5--------------------
-|-7---7--7h9--7----------7h9p7----7/9--10---9-10------------7--7h9-7---------
-|---7-----------10-10--7--------8-------------------------7----------10-10---
-|----------------------------------------------------------------------------
Lead Fig 1

-------------------------------------|----------------------------------1-----
---------------5--6------------------|----------------------------------1-----
-----------5-7-------7b9r7--5h7p5\4--|-5------------5/7---7\------------2-----
----7--5/7---------------------------|----------------------------------3-----
-------------------------------------|----------------------------------3-----
--8----------------------------------|----------------------------------1-----
If only I could find a way

-----------------------3------------3--------|-0------------------2---3-------
-----------------------5------------3--------|-1------------------4---3-------
-----------------------5------------4--------|-2------------------4---4-------
-----------------------5------------5--------|-2------------------4---5-------
-----------------------3------------5--------|--------------------2---5-------
-----------------------3------------3--------|--------------------2---3-------
I'd feel like I'm the man you believe I am It's gettin' harder everyday

-1------|-----1-----1--|-----0------------1----------|--1---------------------
-1------|---1----------|---1-----0--1---1---1--------|----1----0---1----------
-2------|-2-----2------|-0-----0--------------2---2--|-------0----------------
-3------|---------3----|--------------3---------3---2|-3---2-----0------------
-3------|--------------|-----------------------------|------------------------
-1------|--------------|-----------------------------|------------------------
for me to hide behind this dream you see a man I'll neverbe

-0----0------0------|------------8-----|-0----0------0------|-----------8-----
-1----1------1------|-6-----6----------|-1----1------1------|-6-----6---------
-0--0------0------0-|-5-----5--------5-|-0--0------0------0-|-5-----5------5--
--------------------|---7-5----7---5---|--------------------|---7-5---7---5---
-3-------3------3---|------------------|-3-------3------3---|-----------------
--------------------|------------------|--------------------|-----------------


-----------------|-h1---------3---|--------|--------x-------------------------
---0---------0---|----3---1-----1-|--------|-18b20--x\------------------------
---------5-------|----------------|-12tr12-|---------\\-----------------------
-----------------|------3---2-----|--------|----------\\----------------------
-5---5/7---7---5-|----------------|--------|-----------\\---------------------
-----------------|----------------|--------|------------\\--------------------
I'll never be tr=trill

-------------------|------------------------|-5-----7-----7/8--8--------------
-------------------|------------------------|---6-----8-----------------------
-----4-----5---7---|-9-------10-------12----|-----5-----7---------------------
-------------------|------------------------|---------------------------------
---5---5/7---7---8-|---10-10----12-12----14-|---------------------------------
-3-----------------|------------------------|---------------------------------
Lead fig 1

-----1-----------|--------------|---------------------------------------------
---1---1---------|--------------|-5-6--8/10\8---------------------------------
-2-------2---2---|--------------|5------------7--5-7b9r7-5h7p5\4--5-5/17------
-----------3---2-|----3------5--|---------------------------------------------
-----------------|----3----5---3|---------------------------------------------
-----------------|0-1----3------|---------------------------------------------
dream you see a man I'll neverbe Guitar Solo

-----------------------------------12-13-15b17--------------------------------
-----------------12-13-15-12-13h15--------------15h17--15-----12-13-15-13-15--
-9h10-12---12/14-------------------------------------------14-----------------
------------------------------------------------------------------------------
------------------------------------------------------------------------------
------------------------------------------------------------------------------


-------------------------------------------------------x----------------------
-13tr15--12----13-12h13p12--------/17--15-17-18-18b20--x\\-----5-5h6--5h6p5---
------------12-------------14-12-------------------------\\-------------------
----------------------------------------------------------\\------------------
-----------------------------------------------------------\\-----------------
------------------------------------------------------------\\----------------


-----------------------------12-12h15p12----12h15p12----12h15p12----12h15p12--
-----7b8----5h6p5\3----------------------15----------15----------15-----------
-7-5------5---------4b5r4--2--------------------------------------------------
------------------------------------------------------------------------------
------------------------------------------------------------------------------
------------------------------------------------------------------------------


----12-15p12----15b17--12-15p12-----12-15p12-------------------------19b20----
-15----------15-----------------15-----------15-13----13-15b17r15-13----------
---------------------------------------------------14-------------------------
------------------------------------------------------------------------------
------------------------------------------------------------------------------
------------------------------------------------------------------------------


-x----------------------------------------------------------------------------
-x\\--------------------------------------------------------------------------
---\\---2-4-5/7-5h7--5-4---5-4h5p4-----2/4---5-4h5p4-------8\7/8---8-6h8p6\5--
----\\-------------------5---------7-5-----5----------7-5--------6------------
-----\\-----------------------------------------------------------------------
------\\----------------------------------------------------------------------


------------------------------------------------------------------------------
-----6/7-6---6/7\6---6-8-9b11r9-9b11---9b11r9\7-9/11--9h11p9\7\6--------------
-6-8-------6-------8---------------------------------------------8--11--------
------------------------------------------------------------------------------
------------------------------------------------------------------------------
------------------------------------------------------------------------------


-------------------------------------------------------------------------|----
-13b14r13-11h13p11\9--13-----13b14r13-11h13p11\9--13--13b15r13-12-12h13--|----
--------------------------13---------------------------------------------|----
-------------------------------------------------------------------------|----
-------------------------------------------------------------------------|----
-------------------------------------------------------------------------|----


------------|------------|-8-----8----8----8-----8---8---8------8--0----------
------------|------------|10----10----8----8-----8---8---6----6----1----------
-2---4------|------------|---------10----9---------8---8-7--7------0----------
-2---4--5-5-|-3----------|---10------------------------------------2----------
-0---2--5-5-|-3----------|-8----------7-------7--6-------5---------3----------
--------3-3-|-1----------|----------------------------------------------------
Last time Outro

OptimusPrime

Submitted by OptimusPrime at Sun 01 Dec, 2002 8:30 am

Author: ?
Composer: ?
Publisher: ?
Language: English
Available on: Feeling It in Cleveland (2014)

Reactions

CommonCrawl [Bot]

Follow Muzikum