Mr. Big
Aint Seen Love Like That (Guitar tab)

Date: Fri, 18 Aug 2000 15:49:16 -0400
From: Cristian "'S�crates'" Franco
Subject: m/mr_big/aint_seen_love_like_that.tab


MR. BIG
-------
Ain't Seen Love Like That

Transcribed By S�crates

sometimes in ICQ: 84587081 (Socrates)
http://www.geocities.com/socratesworld

As you know in the OLGA site we can't post the tabs
with lyrcis, so
I made the chords transription, solo and others parts
of this song that
may help you to perform the song.
Anyway, if you want the song with the lyrics just
email me;)

Tune at E

Chords:
F2 C G Am Em F Dm D#2 Dsus4
D A# A#2
|--8--|--0--|--3--|--0--|--0--|--1--|--1--|--6--|--3--|--2--|--1--|--6--|
|--10-|--1--|--3--|--1--|--0--|--1--|--3--|--8--|--3--|--3--|--3--|--6--|
|--10-|--0--|--0--|--2--|--0--|--2--|--2--|--8--|--2--|--2--|--3--|--7--|
|--10-|--2--|--0--|--2--|--2--|--3--|--0--|--8--|--0--|--0--|--3--|--8--|
|--8--|--3--|--2--|--0--|--2--|--3--|-----|--6--|-----|-----|--1--|--8--|
|-----|-----|--3--|-----|--0--|--1--|-----|-----|-----|-----|-----|--6--|

G# G7
--4--|--1--|
--4--|--0--|
--5--|--0--|
--6--|--0--|
--6--|--2--|
--4--|--3--|


Intro:
E-|-7-----8-----10-----8-----7-------|-7-----8-----10-----8-----7-----|
B-|---8-----8------8-----8-----8---8-|---8-----8------8-----8-----8---|
G-|-----7-----7------7-----7-----7---|-----7-----7------7-----7-----7-|
D-|----------------------------------|--------------------------------|
A-|----------------------------------|--------------------------------|
E-|----------------------------------|--------------------------------|


E-|-7-----8-----10-----8-----7-------||
B-|---0-----0------0-----0-----0---0-||
G-|-----7-----9/-----11\---9\----7---||
D-|----------------------------------||
A-|----------------------------------||
E-|----------------------------------||

F2-G


C G Am G

C G Am G

C Em

F Dm

D#2 Dm C


E-|-----3---------------|
B-|-1/5---5^3-1---1-----|
G-|-------------2-------|

C G Am G

C G Am G

C Em F Dm

D#2 Dm C


E-|-1-0-------------------------|
B-|-----3-1---------------------|
G-|---------2-0-----------------|
D-|-------------3-2-0---0-2-3-5-|
A-|-------------------3---------|
E-|-----------------------------|

F C Em

F Em Dsus4 D

F C Em

A#


C G Am G

C G Am G

C Em

F Dm

D#2 Dm C


E-|-1-0-------------------------|
B-|-----3-1---------------------|
G-|---------2-0-----------------|
D-|-------------3-2-0---0-2-3-5-|
A-|-------------------3---------|
E-|-----------------------------|

F C Em

F Em Dsus4 D

F

C Em

A#


Solo:
E-|-8-----8-----7-----7-----7-|-5-----------5----3---3---|
B-|---8-----8-----8-----8-----|---5-------5------3---3---|
G-|-----9-----9-----7-----7---|-----5---5--------4---4---|
D-|---------------------------|-------7----------5---5---|
A-|---------------------------|------------------5---5---|
E-|---------------------------|------------------3---3---|


E-|-8-----8-----10-----10-----10--|--8-------------------3---3----|
B-|---8-----8------8------8-------|----8-----------------3---3----|
G-|-----9-----9------9------9-----|------9----------9----4---4----|
D-|-------------------------------|--------10----10------5---5----|
A-|-------------------------------|-----------10---------5---5----|
E-|-------------------------------|----------------------3---3----|


E-|-8-----8-----7-----7-----7-|--8-------8-------5-----5-----5--------|
B-|---8-----8-----8-----8-----|----10------10------6-----6-----6---6--|
G-|-----9-----9-----9-----9---|-------10------10-----7-----7-----7----|
D-|---------------------------|---------------------------------------|
A-|---------------------------|---------------------------------------|
E-|---------------------------|---------------------------------------|


E-|-8-----8-8--8-------8-------8\--||
B-|---8----------6-------6-----8\--||
G-|-----8----------7-------7---9\--||
D-|------------------7--------10\--||
A-|--------------------------------||
E-|--------------------------------||

E-|-1-0-------------------------|
B-|-----3-1---------------------|
G-|---------2-0-----------------|
D-|-------------3-2-0---0-2-3-5-|
A-|-------------------3---------|
E-|-----------------------------|


F C Em

F Em Dsus4 D

F C Em

A#



C G Am

C G Am G

C Em

F Dm

D#2 Dm C

D#2 Dm C

D#2 Dm C

D#2 Dm C




End: D#2 A#2 G# G7


=====
"Qued� desfallecido de escudri�ar la verdad"
S�CRATES

Copyrights
Author: ?
Composer: ?
Publisher: ?
More details
Language: English

Reactions

CommonCrawl [Bot]

Follow Muzikum