Red Hot Chili Peppers
Parallel Universe Ver 2 (Bass tab)

G --------------------------------------------------------------------------------------
D -----10(x32)-------------12(x16)----13(x16)-------------17(x4)-15(x4)-13(x4)-12(x4)---
A ---------------13(x32)------------------------10(x16)--------------------------------- x 3
E --------------------------------------------------------------------------------------

G --------------------------------------------
D -----10(x14)---------------13(x8)-----------
A -------------10(x4)-11(x8)--------10(x32)--- x 2
E --------------------------------------------

G --------------------------------------------------------------------------------------
D -----10(x32)-------------12(x16)----13(x16)-------------17(x4)-15(x4)-13(x4)-12(x4)---
A ---------------13(x32)------------------------10(x16)--------------------------------- x 2
E --------------------------------------------------------------------------------------

G --------------------------------------------
D -----10(x14)---------------13(x8)-----------
A -------------10(x4)-11(x8)--------10(x32)--- x 4
E --------------------------------------------

G ---------------------------------
D -----10(x4)----------------------
A -----------10(x4)-11(x4)-8(x4)--- x 8
E ---------------------------------

G --------------------------------------------------------------------------------------
D -----10(x32)-------------12(x16)----13(x16)-------------17(x4)-15(x4)-13(x4)-12(x4)---
A ---------------13(x32)------------------------10(x16)--------------------------------- x 2
E --------------------------------------------------------------------------------------

G --------------------------------------------
D -----10(x14)---------------13(x8)-----------
A -------------10(x4)-11(x8)--------10(x32)--- x 4
E --------------------------------------------

G --------------------------------------------------------------------------------------
D -----10(x32)-------------12(x16)----13(x16)-------------17(x4)-15(x4)-13(x4)-12(x4)---
A ---------------13(x32)------------------------10(x16)--------------------------------- x 3
E --------------------------------------------------------------------------------------

G --------------------------------------------------------------------------------------------
D -----10(x32)-------------12(x16)----13(x16)-------------17(x4)-15(x4)-13(x4)-12(x4)---10*---
A ---------------13(x32)------------------------10(x16)--------------------------------------- x 1
E --------------------------------------------------------------------------------------------

*=end on

Copyrights
Author: ?
Composer: ?
Publisher: ?

Reactions

CommonCrawl [Bot]

Follow Muzikum