Red Hot Chili Peppers

Red Hot Chili Peppers
Battleship (Guitar tab)

Verse:



E5 D5 B5

-||-------------------------|-------------------------||-

-||-------------------------|-------------------------||-

-||-*-----------------------|-----------------------*-||-

-||-*--9----9--9--9----7----|----7----7--7--7----4--*-||-

-||----7----7--7--7----5----|----5----5--5--5----2----||-

-||-------------------------|-------------------------||- x2



Chorus:



E9 E9

-||----7--7--7---7-7--x-7-7---|----7--7--7---7--7---7--7----||-

-||----7--7--7---7-7--x-7-7---|----7--7--7---7--7---7--7----||-

-||----7--7--7---7-7--x-7-7---|----7--7--7---7--7---7--7----||-

-||---------------------------|-----------------------------||-

-||---------------------------|-----------------------------||-

-||---------------------------|-----------------------------||-



Bass Verse Riff:



G-||--------------------------------|--------------------------------||-

D-||--------------------------------|--------------------------------||-

A-||--------------------------------|--------------------------------||-

E-||----7--7--5-5--7---x-7--5--7----|----7--7--5-5--7---x-7--5--7----||-



Bass Chorus Riff:



G-||-----------------------------|-------------------------------||-

D-||-----------------------------|-------------------------------||-

A-||----7--7--7------------------|----7--7--7--------------------||-

E-||---------------3-3----5-5----|---------------3--3----5--5----||-

OptimusPrime

Submitted by OptimusPrime at Sun 30 Oct, 2005 9:33 am

Author: ?
Composer: ?
Publisher: ?
Language: English
Available on: Freaky Styley (1985)

Reactions

CommonCrawl [Bot]

Follow Muzikum