Red Hot Chili Peppers
Under The Bridge Ver 11 (Guitar tab)

Red Hot Chili Peppers

Under The Bridge

C major
E-------------------------------------------------------------------------------
B----1-------------------1------------------------------------------------------
G--------------0--------------0-------------------------------------------------
D---------2---------------------------------------------------------------------
A----3--------------3-----------------------------------------------------------
E-------------------------------------------------------------------------------

E major
E-------------------------------------------------------------------------------
B------------------------------0--------------------0---------------------------
G----------------------------------------1---------------1----------------------
D-----------------------------------2-------------------------------------------
A----2----0--------------------2--------------2---------------------------------
E--------------3-----2----------------------------------------------------------

C major
E-------------------------------------------------------------------------------
B-------------------------------------------------------1----1/3----------------
G-------------------------------------------0-----------------------------------
D----2----0-----------------------2---------------------------------2----2=4----
A---------------3----2-----2/3---------3---------3-----------------3----3=5-----
E-------------------------------------------------------------------------------

Copyrights
Author: ?
Composer: ?
Publisher: ?
More details
Language: English

Reactions

CommonCrawl [Bot]

Follow Muzikum