Red Hot Chili Peppers
Warnin (Guitar tab)

This is one damn repetitive song email me if i got the break wrong!

Main riff
|----------------------------------|
|----------------------------------|
|------------------0-0-------------|
|----------0-0-2-4-----4-2-0-0-----|
|--0-0-2-4---------------------4-2-|
|----------------------------------|

Break
|------------------------|
|------------------------|
|------------------------|
|------------------------|
|--0-4-0-----0-0-4-0-----|
|--------3-0---------3-0-|

thats basically it just play to the record it ll take ages to get the write amount of times to play the main riff.

  • stinx2

    Submitted by

    stinx2 at Sun 17 Apr, 2005 4:57 pm

  • <
Copyrights
Author: ?
Composer: ?
Publisher: ?
More details
Language: English

Reactions

CommonCrawl [Bot]

Follow Muzikum