Red Hot Chili Peppers
Porcelain Ver2 (Bass tab)

porcelain- californication
red hot chili peppers

tabbed by kevin w

G|----6--------6---
D|--0--7-----0--7-- X4 VERSE1
A|------7--------7-
E|-------5--5-----2

G|--4-----4~--4------------
D|------------------------2 CHORUS X1
A|-----------------------2-
E|---2--5---5~-2--5--0-4---

G|----6-----------
D|--0--7---------- PLAY VERSE 1 AS USUAL BUT WHEN YOU PLAT IT THE THIRD TIME DO IT LIKE THIS:
A|------7------5-7 THEN AFTER YOU PLAY IT LIKE THIS PLAY IT NORMALLY AGAIN
E|-------5--5-7---

G|--4-----4~4/6\4--4------------9/11\9-
D|------------------------------------- THIS WHAT HAPPENS THE LAST TIME THE CHORUS IS PLAYED
A|------------------------------------5~
E|---2--5--------5~-2--5--0-4-7--------

HOPE IT SOUNDS GOOD AND HAVE FUN PLAYING IT!!!!

Copyrights
Author: ?
Composer: ?
Publisher: ?
More details
Language: English

Reactions

CommonCrawl [Bot]

Follow Muzikum