Red Hot Chili Peppers
Cant Stop Ver 9 (Guitar tab)

My first tab hope you like it




e-------------------------------------------------------------------------
b-------------------------------------------------------------------------
g-------------------------------------------------------------------------
d-------------------------------------------------------------------------
a-5h7-5h7-5h7-5h7-5h7-----5h7-5h7-5h7-5h7-5h7-------5h7-5h7-5h7-5h7-5h7---
e-------------------------------------------------------------------------


e-------------------------------------------------------------------------
b-------------------------------------------------------------------------
g--------7-9---------------7-9-----------------7-9--------------7-9-------
d-------------------------------------------------------------------------
a--7------------7-7-7-------------7-7-7-5---------------5-5-5-------------
e-------------------------------------------------------------------------


e-------------------------------------------------------------------------
b-------------------------------------------------------------------------
g-------------7-9---------------7-9-----------------7-9--------------7-9--
d-------------------------------------------------------------------------
a--5-5-5-3-------------------------------------------------------------
e--------------------7-7-7---------------7-7-7-8-----------8-8-8------------8-8--


g-7-9-7-9-7-9-7-9-7------7-9-7-9-7-9-7-9-7------------------

  • ynot_69

    Submitted by

    ynot_69 at Sun 05 Sep, 2004 3:46 pm

  • <
Copyrights
Author: ?
Composer: ?
Publisher: ?
More details
Language: English

Reactions

CommonCrawl [Bot]

Follow Muzikum