Red Hot Chili Peppers
My Friends Correct (Guitar tab)

My Friends
Red Hot Chili Peppers
From the album One Hot Minute



D Fmaj7 G C
e:----------0-------------0------------------------|
B:----------3-------------3------------------------|
G:------2-----------0-2---------------0-------020-0|
D:--0-----------0-3---------3-----0---------02---2-|
A:----------------------------2---------2-3--------|
E:-------------------------------------------------|


D Fmaj7 C G
e:----------0-------------0------------------------|
B:----------3-------------3------------------------|
G:------2-----------0-2-------------0-2---------0--| (repeat and
D:--0-----------0-3---------3---0-2----------0-----| improvize 2x)
A:----------------------------3---------3-2--------|
E:-------------------------------------------------|

Chorus (chords only, get the rhythm from the album)

C Am C D Am
e:---------------------|
B:--1---1---1---3---1--|
G:--0---2---0---0---2--|
D:--2---2---2---4---2--|
A:--3---0---3---5---0--|
E:---------------------|

Endpart (chords only):

E D C# C G F#5 F5
e:-----------------------------|
B:--7---5---4---3--------------|
G:--9---7---6---5--------------|
D:--9---7---6---5---5---4---3--|
A:--7---5---4---3---5---4---3--|
E:------------------3---2---1--|


Lyrics:

My friends are so depressed
I feel the question of your loneliness
Confide 'cause I'll be on your side
You know I will you know I will

Ex girlfriend called me up
Alone and desperate on the prison phone
They want to give her seven years
For being sad

Chorus:
I love all of you
Hurt by the cold
So hard and lonely too
When you don't know yourself

My friends are so distressed
And standing on the brink of emptiness
No words I know of to express
This emptiness

chorus

Imagine me tauhgt by tragedy
Release is peace
I heard a little girl
And what she said
Was something beautiful
To give your love
No matter what she said


jbt569

  • pnkfloyd

    Submitted by

    pnkfloyd at Mon 19 Jul, 2004 3:49 am

  • <
Copyrights
Author: ?
Composer: ?
Publisher: ?
More details
Language: English

Reactions

CommonCrawl [Bot]

Follow Muzikum