Red Hot Chili Peppers
Cant Stop Ver 2 (Bass tab)

b=bend
r=rest
Intro
b1/2 b1/2
G]-----------------------------------]
D]-9--11--9--11--9--11--9--11--9--11-]
A]-----------------------------------]
E]-----------------------------------]

G]-----r-r-------r-r--------r-r------r-r--------r-r------r-r--------r-r------r-r------]
D]------------------------------------------------------------------------------------]
A]-8-8-----8-8-8----8-8-8-6----6-6-6----6-6-6-----------------------------------------]
E]--------------------------------------------8-----8-8-8----8-8-8-7----7-7-7---7-7-7-]

Chorus
G]---8-10------8-10-------8-10-----8-10--------8-10------8-10--------8-10-----8-10------]
D]--------------------------------------------------------------------------------------]
A]-8-----8-8-8-----8-8-8-6----6-6-6----6-6-6--------------------------------------------]
E]-------------------------------------------8------8-8-8----8-8-8-7-----7-7-7----7-7-7-]

Verse
G]-----------------------------------------]
D]-----------------------------------------]
A]-7-8-9-10------5-x-----------------------]
E]-----------------------7-8-9-10-----8-x--]
x2
G]-----------------------------------------]
D]-----------------------------------------]
A]-7-8-9-10------12-x----------------------]
E]-----------------------7-8-9-10-----5-x--]

  • snagman

    Submitted by

    snagman at Sat 26 Jun, 2004 4:23 am

  • <
Copyrights
Author: ?
Composer: ?
Publisher: ?
More details
Language: English

Reactions

CommonCrawl [Bot]

Follow Muzikum