Red Hot Chili Peppers
Around The World Ver 6 (Guitar tab)

band: red hot chili peppers
song: around the world
cd: californiacation

(bass intro)
E||------------------|------------------|------------------|------------------|
B||------------------|------------------|------------------|------------------|
G||------------------|------------------|------------------|------------------|
D||------------------|------------------|------------------|------------------|
A||------------------|------------------|------------------|------------------|
E||------------------|------------------|------------------|------------------|



--12-12-12-12-12-12-12-12-12-12-12-12-12-12-12-12-12-12-12-12-12-12-12-|
--12-12-12-12-12-12-12-12-12-12-12-12-12-12-12-12-12-12-12-12-12-12-12-|
--14b16-16-14b16-16-14b16-16-14b16-16-16-16-16-14b16-16-16-16-16-16-16-|
-----------------------------------------------------------------------|
-----------------------------------------------------------------------|
-----------------------------------------------------------------------|



--12-12-12-12-12-12-12-12-12-12-12-12-12-12-12-12-12-12-12-12-12-12-12-|
--12-12-12-12-12-12-12-12-12-12-12-12-12-12-12-12-12-12-12-12-12-12-12-|
--14b16-16-14b16-16-14b16-16-14b16-16-16-16-16-14b16-16-16-16-16-16-16-|
-----------------------------------------------------------------------|
-----------------------------------------------------------------------|
-----------------------------------------------------------------------|



--12-12-12-12-12-12-12-12-12-12-12-12-12-12-12-12-12-12-12-12-12-12-12-|
--12-12-12-12-12-12-12-12-12-12-12-12-12-12-12-12-12-12-12-12-12-12-12-|
--14b16-16-14b16-16-14b16-16-14b16-16-16-16-16-14b16-16-16-16-16-16-16-|
-----------------------------------------------------------------------|
-----------------------------------------------------------------------|
-----------------------------------------------------------------------|



--12-12-12-12-12-12-12-12-12-12-12-12-12-12-12-12-12-12-12-12-12-12-12-|
--12-12-12-12-12-12-12-12-12-12-12-12-12-12-12-12-12-12-12-12-12-12-12-|
--14b16-16-14b16-16-14b16-16-14b16-16-16-16-16-14b16-16-16-16-16-16-16-|
-----------------------------------------------------------------------|
-----------------------------------------------------------------------|
-----------------------------------------------------------------------|



--12-12-12-12-12-12-12-12-12-12-12-12-12-12-12-12-12-12-12-12-12-12-12-|
--12-12-12-12-12-12-12-12-12-12-12-12-12-12-12-12-12-12-12-12-12-12-12-|
--14b16-16-14b16-16-14b16-16-14b16-16-16-16-16-14b16-16-16-16-16-16-16-|
-----------------------------------------------------------------------|
-----------------------------------------------------------------------|
-----------------------------------------------------------------------|



--12-12-12-12-12-12-12-12-12--------|------------------------------|
--12-12-12-12-12-12-12-12-12--------|------------------------------|
--14b16-16-14b16-16-14b16-16--------|------------------------------|
------------------------------------|--3-5-3-5-3-5--0-3-5-3-5----0-|
------------------------------------|------------------------------|
------------------------------------|------------------------------|



------------------------------|------------------------------|
------------------------------|------------------------------|
------------------------------|------------------------------|
--3-5-3-5-3-5--0-3-5-3-5----0-|--3-5-3-5-3-5--0-3-5-3-5----0-|
------------------------------|------------------------------|
------------------------------|------------------------------|



------------------------------|------------------------------|
------------------------------|------------------------------|
------------------------------|------------------------------|
--3-5-3-5-3-5--0-3-5-3-5----0-|--3-5-3-5-3-5--0-3-5-3-5----0-|
------------------------------|------------------------------|
------------------------------|------------------------------|



------------------------------|------------------------------|
------------------------------|------------------------------|
------------------------------|------------------------------|
--3-5-3-5-3-5--0-3-5-3-5----0-|--3-5-3-5-3-5--0-3-5-3-5----0-|
------------------------------|------------------------------|
------------------------------|------------------------------|



------------------------------|------------------------------|
------------------------------|------------------------------|
------------------------------|------------------------------|
--3-5-3-5-3-5--0-3-5-3-5----0-|--3-5-3-5-3-5--0-3-5-3-5----0-|
------------------------------|------------------------------|
------------------------------|------------------------------|



-----------------------------|-------------------------------|
-----------------------------|-------------------------------|
-----------------------------|------------------------8------|
--3-5-3-5-3-5--0-3-5-3-5-----|--10---10---8-8-10--10-----10--|
-----------------------------|-------------------------------|
-----------------------------|-------------------------------|



-------------------------------|----------------------------|
-------------------------------|----------------------------|
------------------------10--8--|---------------------8------|
--8h10--10---8--10--10---------|--8h10------------------10--|
-------------------------------|---------10----11-----------|
-------------------------------|----------------------------|



-----------------------------|-------------------------------|
-----------------------------|-------------------------------|
-----------------------------|------------------------8------|
-------------------8-8----8--|--10---10---8-8-10--10-----10--|
--10------10----10-----10----|-------------------------------|
-----------------------------|-------------------------------|



-------------------------------|----------------------------|
-------------------------------|----------------------------|
------------------------10--8--|---------------------8------|
--8h10--10---8--10--10---------|--8h10------------------10--|
-------------------------------|---------10----11-----------|
-------------------------------|----------------------------|



-----------------------------|---------------------------|
-----------------------------|---------------------------|
----------------------8------|---------------------------|
--8h10--10---8--10-------10--|-------------------------0-|
-----------------------------|--10---10---10------10-----|
-----------------------------|---------------------------|



------------------------------|------------------------------|
------------------------------|------------------------------|
------------------------------|------------------------------|
--3-5-3-5-3-5--0-3-5-3-5----0-|--3-5-3-5-3-5--0-3-5-3-5----0-|
------------------------------|------------------------------|
------------------------------|------------------------------|



------------------------------|------------------------------|
------------------------------|------------------------------|
------------------------------|------------------------------|
--3-5-3-5-3-5--0-3-5-3-5----0-|--3-5-3-5-3-5--0-3-5-3-5----0-|
------------------------------|------------------------------|
------------------------------|------------------------------|



------------------------------|------------------------------|
------------------------------|------------------------------|
------------------------------|------------------------------|
--3-5-3-5-3-5--0-3-5-3-5----0-|--3-5-3-5-3-5--0-3-5-3-5----0-|
------------------------------|------------------------------|
------------------------------|------------------------------|



------------------------------|-----------------------------|
------------------------------|-----------------------------|
------------------------------|-----------------------------|
--3-5-3-5-3-5--0-3-5-3-5----0-|--3-5-3-5-3-5--0-3-5-3-5-----|
------------------------------|-----------------------------|
------------------------------|-----------------------------|



-------------------------------|-------------------------------|
-------------------------------|-------------------------------|
------------------------8------|------------------------10--8--|
--10---10---8-8-10--10-----10--|--8h10--10---8--10--10---------|
-------------------------------|-------------------------------|
-------------------------------|-------------------------------|



----------------------------|-----------------------------|
----------------------------|-----------------------------|
---------------------8------|-----------------------------|
--8h10------------------10--|-------------------8-8----8--|
---------10----11-----------|--10------10----10-----10----|
----------------------------|-----------------------------|



-------------------------------|-------------------------------|
-------------------------------|-------------------------------|
------------------------8------|------------------------10--8--|
--10---10---8-8-10--10-----10--|--8h10--10---8--10--10---------|
-------------------------------|-------------------------------|
-------------------------------|-------------------------------|



-------------------------------|--------------------------|
-------------------------------|--------------------------|
------------------------10--8--|--------------------------|
--8h10--10---8--10--10---------|--------------------------|
-------------------------------|--10---10---10------10----|
-------------------------------|--------------------------|



|---12-12-12-12-12-12-12-12-12-12-12-12-12-12-12-12-12-12-12-12-12-12-12-|
|---12-12-12-12-12-12-12-12-12-12-12-12-12-12-12-12-12-12-12-12-12-12-12-|
|*--14b16-16-14b16-16-14b16-16-14b16-16-16-16-16-14b16-16-16-16-16-16-16-|
|*-----------------------------------------------------------------------|
|------------------------------------------------------------------------|
|------------------------------------------------------------------------|


3x
--12-12-12-12-12-12-12-12-12-12-12-12-12-12-12-12-12-12-12-12-12-12-12--||
--12-12-12-12-12-12-12-12-12-12-12-12-12-12-12-12-12-12-12-12-12-12-12--||
--14b16-16-14b16-16-14b16-16-14b16-16-16-16-16-14b16-16-16-16-16-16-16-*||
-----------------------------------------------------------------------*||
------------------------------------------------------------------------||
------------------------------------------------------------------------||



------------------------------|------------------------------|
------------------------------|------------------------------|
------------------------------|------------------------------|
--3-5-3-5-3-5--0-3-5-3-5----0-|--3-5-3-5-3-5--0-3-5-3-5----0-|
------------------------------|------------------------------|
------------------------------|------------------------------|



------------------------------|------------------------------|
------------------------------|------------------------------|
------------------------------|------------------------------|
--3-5-3-5-3-5--0-3-5-3-5----0-|--3-5-3-5-3-5--0-3-5-3-5----0-|
------------------------------|------------------------------|
------------------------------|------------------------------|



------------------------------|------------------------------|
------------------------------|------------------------------|
------------------------------|------------------------------|
--3-5-3-5-3-5--0-3-5-3-5----0-|--3-5-3-5-3-5--0-3-5-3-5----0-|
------------------------------|------------------------------|
------------------------------|------------------------------|



------------------------------|------------------------------|
------------------------------|------------------------------|
------------------------------|------------------------------|
--3-5-3-5-3-5--0-3-5-3-5----0-|--3-5-3-5-3-5--0-3-5-3-5----0-|
------------------------------|------------------------------|
------------------------------|------------------------------|



------------------------------|-----------------------------|
------------------------------|-----------------------------|
------------------------------|-----------------------------|
--3-5-3-5-3-5--0-3-5-3-5----0-|--3-5-3-5-3-5--0-3-5-3-5-----|
------------------------------|-----------------------------|
------------------------------|-----------------------------|



-------------------------------|-------------------------------|
-------------------------------|-------------------------------|
------------------------8------|------------------------10--8--|
--10---10---8-8-10--10-----10--|--8h10--10---8--10--10---------|
-------------------------------|-------------------------------|
-------------------------------|-------------------------------|



----------------------------|----------------------------|
----------------------------|----------------------------|
---------------------8------|----------------------------|
--8h10------------------10--|-------------------8-----8--|
---------10----11-----------|--10------10----10----10----|
----------------------------|----------------------------|



-------------------------------|-------------------------------|
-------------------------------|-------------------------------|
------------------------8------|------------------------10--8--|
--10---10---8-8-10--10-----10--|--8h10--10---8--10--10---------|
-------------------------------|-------------------------------|
-------------------------------|-------------------------------|



----------------------------|-------------------------------|
----------------------------|-------------------------------|
---------------------8------|-------------------------------|
--8h10------------------10--|---------------------8-----12--|
---------10----11-----------|--10---10---10----10----10-----|
----------------------------|-------------------------------|



-------------------------------|-------------------------------|
-------------------------------|-------------------------------|
------------------------8------|------------------------10--8--|
--10---10---8-8-10--10-----10--|--8h10--10---8--10--10---------|
-------------------------------|-------------------------------|
-------------------------------|-------------------------------|



----------------------------|----------------------------|
----------------------------|----------------------------|
---------------------8------|----------------------------|
--8h10------------------10--|-------------------8-----8--|
---------10----11-----------|--10------10----10----10----|
----------------------------|----------------------------|



-------------------------------|-------------------------------|
-------------------------------|-------------------------------|
------------------------8------|------------------------10--8--|
--10---10---8-8-10--10-----10--|--8h10--10---8--10--10---------|
-------------------------------|-------------------------------|
-------------------------------|-------------------------------|



----------------------------|------------------|
----------------------------|------------------|
----------------------------|------------------|
-------10---8--10----10--8--|------------------|
--6/8-----------------------|------------------|
----------------------------|------------------|



--13-13-13-13-13-13-13-13-13-13-13-13-13-13-13-13-|
--15-15-15-15-15-15-15-15-15-15-15-15-15-15-15-15-|
--14-14-14-14-14-14-14-14-14-14-14-14-14-14-14-14-|
--12-12-12-12-12-12-12-12-12-12-12-12-12-12-12-12-|
--------------------------------------------------|
--------------------------------------------------|


--13-13-13-13-13-13-13-13-13-13-13-13-13-13-13/15-|
--15-15-15-15-15-15-15-15-15-15-15-15-15-15-15/17-|
--14-14-14-14-14-14-14-14-14-14-14-14-14-14-14/14-|
--12-12-12-12-12-12-12-12-12-12-12-12-12-12-12/14-|
--------------------------------------------------|
--------------------------------------------------|


--15-15-15-15-15-15-15-15-15-15-15-15-15-15-15/17-|
--17-17-17-17-17-17-17-17-17-17-17-17-17-17-17/18-|
--14-14-14-14-14-14-14-14-14-14-14-14-14-14-14/15-|
--14-14-14-14-14-14-14-14-14-14-14-14-14-14-14/15-|
--------------------------------------------------|
--------------------------------------------------|



--17-17-17-17-17-17-17-17-17-17-17-17-17-17-17\-|
--18-18-18-18-18-18-18-18-18-18-18-18-18-18-18\-|
--15-15-15-15-15-15-15-15-15-15-15-15-15-15-15\-|
--15-15-15-15-15-15-15-15-15-15-15-15-15-15-15\-|
------------------------------------------------|
------------------------------------------------|



--13-13-13-13-13-13-13-13-13-13-13-13-13-13-13-13-|
--15-15-15-15-15-15-15-15-15-15-15-15-15-15-15-15-|
--14-14-14-14-14-14-14-14-14-14-14-14-14-14-14-14-|
--12-12-12-12-12-12-12-12-12-12-12-12-12-12-12-12-|
--------------------------------------------------|
--------------------------------------------------|



--13-13-13-13-13-13-13-13-13-13-13-13-13-13-13-13-|
--15-15-15-15-15-15-15-15-15-15-15-15-15-15-15-15-|
--14-14-14-14-14-14-14-14-14-14-14-14-14-14-14-14-|
--12-12-12-12-12-12-12-12-12-12-12-12-12-12-12-12-|
--------------------------------------------------|
--------------------------------------------------|



--15-15-15-15-15-15-15-15-15-15-15-15-15-15-15-15-|
--17-17-17-17-17-17-17-17-17-17-17-17-17-17-17-17-|
--14-14-14-14-14-14-14-14-14-14-14-14-14-14-14-14-|
--14-14-14-14-14-14-14-14-14-14-14-14-14-14-14-14-|
--------------------------------------------------|
--------------------------------------------------|



--17-17-17-17-17-17-17-17-17-18-18-18-18-18--x-|
--18-18-18-18-18-18-18-18-18-18-18-18-18-18--x-|
--15-15-15-15-15-15-15-15-15-15-15-15-15-15--x-|
--15-15-15-15-15-15-15-15-15-------------------|
-----------------------------------------------|
-----------------------------------------------|



--13-13-13-13-13-13-13-13-13-13-13-13-13-13-13-13-|
--15-15-15-15-15-15-15-15-15-15-15-15-15-15-15-15-|
--14-14-14-14-14-14-14-14-14-14-14-14-14-14-14-14-|
--12-12-12-12-12-12-12-12-12-12-12-12-12-12-12-12-|
--------------------------------------------------|
--------------------------------------------------|



--13-13-13-13-13-13-13-13-13-13-13-13-13-13-13-13-|
--15-15-15-15-15-15-15-15-15-15-15-15-15-15-15-15-|
--14-14-14-14-14-14-14-14-14-14-14-14-14-14-14-14-|
--12-12-12-12-12-12-12-12-12-12-12-12-12-12-12-12-|
--------------------------------------------------|
--------------------------------------------------|



--15-15-15-15-15-15-15-15-15-15-15-15-15-15-15-15-|
--17-17-17-17-17-17-17-17-17-17-17-17-17-17-17-17-|
--14-14-14-14-14-14-14-14-14-14-14-14-14-14-14-14-|
--14-14-14-14-14-14-14-14-14-14-14-14-14-14-14-14-|
--------------------------------------------------|
--------------------------------------------------|



--17-17-17-17-17-17-17-17-17-17-17-17-17-17-17-x-|
--18-18-18-18-18-18-18-18-18-18-18-18-18-18-18-x-|
--15-15-15-15-15-15-15-15-15-15-15-15-15-15-15-x-|
--15-15-15-15-15-15-15-15-15-15-15-15-15-15-15-x-|
-------------------------------------------------|
-------------------------------------------------|



--13-13-13-13-13-13-13-13-13-13-13-13-13-13-13-13-|
--15-15-15-15-15-15-15-15-15-15-15-15-15-15-15-15-|
--14-14-14-14-14-14-14-14-14-14-14-14-14-14-14-14-|
--12-12-12-12-12-12-12-12-12-12-12-12-12-12-12-12-|
--------------------------------------------------|
--------------------------------------------------|



--13-13-13-13-13-13-13-13-13-13-13-13-13-13-13-13-|
--15-15-15-15-15-15-15-15-15-15-15-15-15-15-15-15-|
--14-14-14-14-14-14-14-14-14-14-14-14-14-14-14-14-|
--12-12-12-12-12-12-12-12-12-12-12-12-12-12-12-12-|
--------------------------------------------------|
--------------------------------------------------|



--15-15-15-15-15-15-15-15-15-15-15-15-15-15-15-15-|
--17-17-17-17-17-17-17-17-17-17-17-17-17-17-17-17-|
--14-14-14-14-14-14-14-14-14-14-14-14-14-14-14-14-|
--14-14-14-14-14-14-14-14-14-14-14-14-14-14-14-14-|
--------------------------------------------------|
--------------------------------------------------|



--17-17-17-17-17-17-17-17-17-17-17-17-----||
--18-18-18-18-18-18-18-18-18-18-18-18-----||
--15-15-15-15-15-15-15-15-15-15-15-15-----||
--15-15-15-15-15-15-15-15-15-15-15-15-----||
------------------------------------------||
------------------------------------------||

Copyrights
Author: ?
Composer: ?
Publisher: ?
More details
Language: English

Reactions

CommonCrawl [Bot]

Follow Muzikum