Red Hot Chili Peppers
Love Rollercoaster Ver2 (Guitar tab)

band: red hot chili peppers
song: love rollercoaster

dont know if this is correct i just heard it on the radio and tried to tab it. im not sure about
the strumming because i didnt have the cd so you could figure out the strumming

main riff:
e------------------------------------------------------------------------
b--13-13-1111-10-10-xxxx-10-10-11-11-131313------------------------------
g--12-12-1010-9--9--xxxx-9--9--10-10-121212------------------------------
d--14-14-1212-11-11-xxxx-11-11-12-12-141414------------------------------
a------------------------------------------------------------------------
E------------------------------------------------------------------------

you dont have to hit the dead note part you could just pause at that part instead

chorus:
e-------------------
b-------------------
g-------------------
d--5------6------7-- dont know about the strumming on this part
a--5------6------7--
E--3------4------5--

Copyrights
Author: ?
Composer: ?
Publisher: ?
More details
Language: English

Reactions

CommonCrawl [Bot]

Follow Muzikum