Red Hot Chili Peppers
Blood Sugar Sex Magik Ver 5 (Guitar tab)

RHCP: Blood Sugar Sex Magik

Tabbed by C.S.Howe

(With Wha pedal and medium distortion)

E: --------------------------------------------------------------------

B: --------------------------------------------------------------------

G: --9--12--14-/-16--12-/-14--7-/-9-(-9-9-9-)-9--11--12-/-14--11-/-12--

D: --7--10--12-/-14--10-/-12--5-/-7-(-7-7-7-)-7�-9---10-/-12--9-/-10---
(pmute)
A: --------------------------------------------------------------------

E: --------------------------------------------------------------------


E: --------------------------------------------------------------------

B: --------------------------------------------------------------------

G: -6-/-7-(-7-7-7-)----------------------------------------------------

D: -4-/-5-(-5-5-5-)�(-7\0-)--------------------------------------------
(pmute) (only on 4th time slide this note!!)
A: --------------------------------------------------------------------

E: --------------------------------------------------------------------

Play the sequence above 4 times and on the last bar slide down from the A on the 7th fret as I have shown.

E: --------------------------------------------------------------------

B: --------------------------------------------------------------------

G: --------------------------------------------------------------------

D: --------------------------------------------------------------------

A: -(0)-0-0-0-(0)-0-0-0-(0)-0-0-0-(0)-0-0-0-(0)-0-0-0-(0)-0-0-0-(0)-etc

E: --------------------------------------------------------------------
�Blood sugar sucker fish in my dish� �How many pieces do you wish�


Where you see (0) you must rock the Wha pedal forwards for this note and then straight back before you get to the next note, listen to the song and you�ll get what I mean!!







(At this point the wha comes off high
(gain comes on and make som background
(noise by raking the open strings
e :-----------------------------0--------------------------------------

B: -----------------------------0--------------------------------------

G: -----------------------------0--------------------------------------

D: -----------------------------0--------------------------------------

A: (0)-0-0-0-(0)-0-0-0-(0)------0--------------------------------------

E: -----------------------------0--------------------------------------
�I mingle with the gods I mingle with divinity


(CHORUS)
e :--------------------------------------------------------------------

B: --------------------------------------------------------------------

G: -----------------7--------------------------------------------------

D: ------------------9-8-7---------------------------------------------

A: --------7-5-7-------------10---------7-5-7------4--5----------------

E: -0--0-0-----------------------0--0-0-------0-3----------------------
Repeat above 4 times and at the the end play below(but only the
first time the chorus is played!)

e :----------4----------------6-\--------------------------------------

B: ----------4----------------6-\--------------------------------------

G: --------------------------------------------------------------------

D: -3-3-3-3---------5-5-5-5--------------------------------------------

A: --------------------------------------------------------------------

E: --------------------------------------------------------------------

Repeat Intro x2
Play verse

Chorus x2

And then.............................................................

  • Catnap

    Submitted by

    Catnap at Wed 18 Feb, 2004 3:13 am

  • <
Copyrights
Author: ?
Composer: ?
Publisher: ?
More details
Language: English

Reactions

CommonCrawl [Bot]

Follow Muzikum