Red Hot Chili Peppers
Save The Population (Guitar tab)

artist: RED HOT CHILI PEPPERS
song: SAVE THE POPULATION
album: GRATEST HITS


(x...) - you have to figure out the timeing youreself

PRE CHORUS:

e|-----3------------6-------------3------------6---------------------
B|-----3------------6-------------3------------6---------------------
G|-----3------------7-------------3------------7---------------------
D|-----5---(x...)---8---(x...)----5---(x...)---8---(x...)------------
A|-----5------------8-------------5------------8---------------------
E|-----3------------6-------------3------------6---------------------

I put my cards...

e|-----6------------3-------------5------------5---------------------
B|-----8------------4-------------7------------7---------------------
G|-----8------------5-------------7------------7---------------------
D|-----8---(x...)---5---(x...)----7---(x...)---7---(x...)------------
A|-----6------------3-------------5------------5---------------------
E|-----6------------3-------------5------------5---------------------

Eyes wide with revelation...

CHORUS:

e|-----3-------------1-------------3------------1-------------------- |
B|-----3-------------1-------------3------------1-------------------- |
G|-----3-------------2-------------3------------2-------------------- |
D|-----5---(x...)----3---(x...)----5---(x...)---3---(x...)----------- | x4
A|-----5-------------3-------------5------------3-------------------- |
E|-----3-------------1-------------3------------1-------------------- |

Stay all night to save the population...


Here you have the PRE CHORUS and CHORUS to the INTRO I tabbed earlyer. The only thing you need
are the VERSES (which Im trying to figure out). Then youll have the whole song.

Dorthy N.

Copyrights
Author: ?
Composer: ?
Publisher: ?
More details
Language: English

Reactions

CommonCrawl [Bot]

Follow Muzikum