Red Hot Chili Peppers
Universally Speaking Ver 2 (Bass tab)

Red Hot Chili Peppers - Universally speaking
(from the album "By the way")

Bass tab by BsSm (francesco.lurgo@genie.it)

Main figure:
1|-6-6-6---------------|
2|-7-7-7-7-7-7-7-7-7-7-|
3|-------7-7-7-7-7-7-5-|
4|---------------------|

End of prechorus:
1|--5-5-5-5-5-5-5--|
2|--5-5-5-5-5-5-5--|
3|-----------------|
4|-----------------|

Chorus:
1|-15-15-15-15-17-15-17-15---12-12-12-12-15-12-15-12---5-5-5-5-5-5-5-|
2|-15-15-15-15-17-15-17-15---12-12-12-12-15-12-15-12---5-5-5-5-5-5-5-|
3|-------------------------------------------------------------------|x 2 then:
4|-------------------------------------------------------------------|

end of chorus:
1|--3-3--------|
2|--3-3-2-2-2--|
3|------3-3-3--|let ring
4|-------------|

Final solo:
A)
1|-13-13-13-13-12-0-|-13-0-0-13-|-13-0-0-13-|
2|-13-13-13-13-12-0-|-13-0-0-13-|-13-0-0-13-|
3|------------------|-----------|-----------|
4|------------------|-----------|-----------|

1|-5-5-5-5-|--------|-15-15-15-15-|-----------|-12-12-5-5-0-0-0-0-5-5-5-5-5-0-|
2|-5-5-5-5-| repeat |-15-15-15-15-|1st 2 bars |-12-12-5-5-0-0-0-0-5-5-5-5-5-0-|
3|---------| A |-------------| of A |-------------------------------|
4|---------|--------|-------------|-----------|-------------------------------|

Ending:
1|-0--0/12-|
2|-0--0/12-|let ring
3|---------|

Copyrights
Author: ?
Composer: ?
Publisher: ?
More details
Language: English

Reactions

CommonCrawl [Bot]

Follow Muzikum