Red Hot Chili Peppers
Throw Away Your Television Ver 2 (Bass tab)

Title: Throw Away Your Television
Artist: Red Hot Chili Peppers
Album: By the Way
Trancribed by Chris Valente
E-Mail: RedHotMetallica@aol.com

Intro/Verse

G|--------------------------------------------------
D|--------------------------------------------------
A|--------------------------7-----7-7---------------
E|-55-5-3-3-55-3-3-53---0-0----00-----00--8-7-------

Chorus

G|-14-------14-------14----16-------16-------16-----
D|----14-14----14-14----14----14-14----14-14----16--Three Times
A|--------------------------------------------------
E|--------------------------------------------------

G|-12-------12-------12----10-------10-------10-----
D|----12-12----12-12----12----10-10----10-10--------
A|--------------------------------------------------
E|--------------------------------------------------

Bridge

G|--------------------------------------------------
D|-77-77-7-77-777/99-99-9-99-999/-------------------
A|--------------------------------------------------
E|--------------------------------------------------

G|--------------------------------------------------
D|-/1212121212121212/14141414/1212121212121212------
A|--------------------------------------------------

Copyrights
Author: ?
Composer: ?
Publisher: ?
More details
Language: English

Reactions

CommonCrawl [Bot]

Follow Muzikum