Red Hot Chili Peppers
This Is The Place Ver 6 (Bass tab)

Song: This is the Place
Artist: Red Hot Chili Peppers
Album: By the Way
Transcribed by Chris Valente
E-Mail: RedHotMetallica@aol.com

G|-------5-5-5-------------55------
D|-7-7-7-------5-5-5-----------77--
A|-------------------8-8-8---------
E|---------------------------------

G|-----------------------------|-------------|-----------
D|-7-7-7-------7-7-------------|-------------|-55--------
A|-------5-5-5-----8-8-8-------|-------5-5-5-|----5-5-5--
E|-----------------------8-8-8-|-3-3-3-------|-----------

1st Ending 2nd Ending
Just loop that throughout song.
The bridge is just guitar going F | C | Dm | %
It's cool to play those notes real high up though. If your

Copyrights
Author: ?
Composer: ?
Publisher: ?
More details
Language: English

Reactions

CommonCrawl [Bot]

Follow Muzikum