Red Hot Chili Peppers
This Is The Place Ver 2 (Bass tab)

song: this is the place
Artist: red hot chili peppers
Album: by the way

This is the basic riff all the way through!

G|--------5-5--------|--------5-5--------|-------------------|
D|--7-7-7-----5-5-5--|--3-3-3-----7-7-7--|--------7-7--------|
A|-------------------|-------------------|--5-5-5-----8-8-8--|
E|-------------------|-------------------|-------------------|

G|-------------------|
D|--------5-5--------|
A|--3-3-3-----5-5-5--|
E|-------------------|

Copyrights
Author: ?
Composer: ?
Publisher: ?
More details
Language: English

Reactions

CommonCrawl [Bot]

Follow Muzikum