Red Hot Chili Peppers
Pea Ver 2 (Bass tab)

Pea by Red Hot Chili Peppers

tabbed by Bassdard MK2: visit www.allesdrehtsich.de

|------------------|------------------|------------------|------------------|
|--3-----3-3-----3-|------------------|------------------|------------------|
|------------------|--4-----4-4-----4-|--3-----3-3-----3-|--1-----1-1-----1-|
|------------------|------------------|------------------|------------------|
I'm a little Pea I love the sky an the trees

|------------------|------------------|------------------|------------------|
|--3-----3-3-----3-|------------------|------------------|------------------|
|------------------|--4-----4-4-----4-|--3-----3-3-----3-|--1-----1-1-----1-|
|------------------|------------------|------------------|------------------|
I'm a teeny tiny little ant chenking out this and that

|------------------|------------------|------------------|------------------|
|--3-----3-3-----3-|------------------|------------------|------------------|
|------------------|--4-----4-4-----4-|--3-----3-3-----3-|--1-----1-1-----1-|
|------------------|------------------|------------------|------------------|
I'm nothing aaaaaaaa so you have nothing to hide

|------------------|------------------|------------------|------------------|
|--3-----3-3-----3-|------------------|------------------|------------------|
|------------------|--4-----4-4-----4-|--3-----3-3-----3-|--1-----1-1-----1-|
|------------------|------------------|------------------|------------------|
And I'm a pacifist so I can fuck you shit up


|------------------|------------------|------------------|------------------|
|3/5-----5-5-----5-|--8-----8-8-----8-|--3-----3-3-----3-|--3-3---33--33-023|
|------------------|------------------|------------------|------------------|
|------------------|------------------|------------------|------------------|
Ohh yeah I'm small

|------------------|------------------|------------------|------------------|
|--5-----5-5-----5-|--8-----8-8-----8-|--3-----3-3-----3-|--3-3---3---3---3-|
|------------------|------------------|------------------|------------------|
|------------------|------------------|------------------|------------------|
Ohh yeah I'm small


|------------------|------------------|------------------|------------------|
|--2-----2-2-----2-|----------0---3---|--2-----2-2-----2-|----------0---5---|
|------------------|--3-----3---------|------------------|--3-----3---------|
|------------------|------------------|------------------|------------------|
Fuck you asshole You homophobic redneck dick

|------------------|------------------|------------------|------------------|
|--2-----2-2-----2-|----------0---3---|--2-----2-2-----2-|--0-----0-3-3---2-|
|------------------|--3-----3---------|------------------|------------------|
|------------------|------------------|------------------|------------------|
You're big and tough and macho You can kick my ass So fucking what

|------------------|------------------|------------------|------------------|
|-(2)2-2--22-2---2-|--0-----3-3-3---2-|--2-2-2-2-2-2-2-2-|--0-0-0-0-3-3-3-3-|
|------------------|------------------|------------------|------------------|
|------------------|------------------|------------------|------------------|
So fucking what So fucking

|------------------|------------------|------------------||
|--2---2-2-2-2-2-2-|--0-0-0-0-3-3-3-3-|--2---------------||
|------------------|------------------|------------000---||
|------------------|------------------|------------------||
what so fucking what

Copyrights
Author: ?
Composer: ?
Publisher: ?
More details
Language: English

Reactions

CommonCrawl [Bot]

Follow Muzikum