Red Hot Chili Peppers
Parallel Universe Ver 6 (Guitar tab)

Author/Artist: Red Hot Chili Peppers
Title: Paralell Universe
Album: Californication
Transcribed by: Rick S.
Email: ricksloukji@hotmail.com

I saw a request for this tab and realised I haven't tabbed any RHCP songs yet, so here's one.

------------------------------------------------------------------------------
-------6t-8t------------------------------------------------------------------
-8t-7t-------5t-4t------------------------------------------------------------
------------------------------------------------------------------------------
------------------------------------------------------------------------------
------------------------------------------------------------------------------
Mute low E for the Intro. t indicates Tremolo picking.

---6t-7t----------------------------------------------------------------------
------------------------------------------------------------------------------
-5t---------------------------------------------------------------------------
------------------------------------------------------------------------------
------------------------------------------------------------------------------
------------------------------------------------------------------------------
Pre-Chorus

------------------------------------------------------------------------------
------------------------------------------------------------------------------
-5-----8----------------------------------------------------------------------
-5-5/6-8-5--------------------------------------------------------------------
-3-5/6-6-5--------------------------------------------------------------------
---3/4---3--------------------------------------------------------------------
Chorus

---------8--------------------------------------------------------------------
---------8--------------------------------------------------------------------
-8t---0t-8--------------------------------------------------------------------
----8t------------------------------------------------------------------------
------------------------------------------------------------------------------
------------------------------------------------------------------------------
Bridge

Copyrights
Author: ?
Composer: ?
Publisher: ?
More details
Language: English

Reactions

CommonCrawl [Bot]

Follow Muzikum