Red Hot Chili Peppers
Organic Anti Beat Box Band (Bass tab)

Organic Anti-Beat Box Band
Red Hot Chili Peppers


I listened to a live tape of the band to figure out the guitar part for this
song. It was a lot clearer than on the album.


Verse

E5 D5 E5 G5 A5
|---------------------------------|---------------------------------|
|---------------------------------|---------------------------------|
|-/9-----9--x--9-------7--x-x--7--|-/9-----9--x--9------------------|
|-/9-----9--x--9-------7--x-x--7--|-/9-----9--x--9------------------|
|-/7-----7--x--7-------5--x-x--5--|-/7-----7--x--7-------5-5----7-7-|
|-----0--0-----0------------------|-----0--0-----0--0----3-3----5-5-|


E5 D5 E5 A#5 A5 G5
|---------------------------------|---------------------------------|
|---------------------------------|---------------------------------|
|-/9-----9--x--9-------7--x-x--7--|-/9-----9--x--9------------------|
|-/9-----9--x--9-------7--x-x--7--|-/9-----9--x--9------------------|
|-/7-----7--x--7-------5--x-x--5--|-/7-----7--x--7----------8--7--5-|
|-----0--0-----0------------------|-----0--0-----0--0----0--6--5--3-|


Chorus

B
B
D
E


Here's the bass line under the solo:

|---------------------|--------------------|
|-/4--2---------------|--------------------|
|--------5----4--2----|------2-------------|
|-------------------5-|-5---------3--------|


If you would like to help me tab some more Red Hot Chili Peppers songs,
e-mail me at leet@magi.com.

- Dee

Copyrights
Author: ?
Composer: ?
Publisher: ?
More details
Language: English

Reactions

CommonCrawl [Bot]

Follow Muzikum