Red Hot Chili Peppers
Me And My Friends Ver 2 (Bass tab)

Author/Artist: Red Hot Chili Peppers
Title: Me & My Friends
Album: The Uplift Mofo Party Plan
Transcribed by: Greenie 12


Intro:

-|---------9----------11--|----------9----------11--|--11-9----11-9-----|-
-|----/10--------/10------|-----/10--------/10------|-------10------10--|-
-|-0----------0-----------|--0----------0-----------|-------------------|-
-|------------------------|-------------------------|-------------------|-

-|--11-9----11-9----11-9----11--|--9----11-9----11-9-----|-
-|-------10------10------10-----|----10------10------10--|-
-|------------------------------|------------------------|-
-|------------------------------|------------------------|-

Chorus: Me & my, me & my...friends part

-|-----------------------------------|----------------------------------|-
-|--7-5---7-5---7-5---7-5---7-5---5--|---------5---------------5--------|-
-|------7-----7-----7-----7-----7----|--5--5-5---5-5-5-5-5-5-5---5-5-5--|-
-|-----------------------------------|----------------------------------|-

Verse: Like two sweet peas.....

-|-----------------------------------|-----------------------------------|-
-|-----------------------------------|-----------------------------------|-
-|----------5-5-5-5-------5-5-5-5-5--|----------5-5-5-5-------5-5-5-5-5--|-
-|--0-0-0-0---------0-0-0------------|--0-0-0-0---------0-0-0------------|-

After Guitar Solo:

-|-----------------------------------|----------------------------------|-
-|-----------------------------------|----------------------------------|-
-|--7-5---7-5---7-5---7-5---7-5---5--|---------5---------------5--------|-
-|------7-----7-----7-----7-----7----|--5--5-5---5-5-5-5-5-5-5---5-5-5--|-

-|-----------------------------------|----------------------------------|-
-|-----------------------------------|----------------------------------|-
-|--7-5---7-5---7-5---7-5---7-5---5--|---------5---------------5--------|-
-|------7-----7-----7-----7-----7----|--5--5-5---5-5-5-5-5-5-5---5-5-5--|-

-|----------------------------------|-
-|----------------------------------|-
-|---------5---------------5--------|-
-|--5--5-5---5-5-5-5-5-5-5---5-5-5--|-

Interlude:

-|---------------------------------|---------------------------------|-
-|---------------------------------|---------------------------------|-
-|--3/5-5-3/5-5-3/5-5-3/5-5-3/5-5--|--3/5-5-3/5-5-3/5-5-3/5-5-3/5-5--|-
-|---------------------------------|---------------------------------|-

Copyrights
Author: ?
Composer: ?
Publisher: ?
More details
Language: English

Reactions

CommonCrawl [Bot]

Follow Muzikum