Red Hot Chili Peppers
Magic Johnson (Bass tab)

The Red Hot Chili Peppers
Mothers Milk
Magic Johnson

Tabbed by pIRHANA

Intro/Main Verse/Basically whole song (listen to cd to get timing)


G-----------------------------------------------------------------------
D-----------------------------------------------------------------------
A-----------------------------------------------------------------------
E-0-0-000---0-0-00-0-00-0-0--etc----------------------------------------


Chorus
(this is difficult to tab, i've wrote it in the way that makes it easy to recognise)


a b c d

G------------------|--------------------|-------------------|--------------------
D------------------|--------------------|-------------------|-------------777----
A-x7p5-------55-77-|-x7p5---------------|-x7p5-------55-77--|-x7p5---------------
E-----7p5-55-------|-----7p5-55---333---|-----7p5-55--------|-----7p5-55---------


REPEAT PARTS A TO C AND THEN FINISH WITH...


G--------------------------------
D------x7-8-9--------------------
A-x7-8---------------------------
E--------------------------------

MAIN VERSE


Final chorus( Exact same as the chorus above and when it gets higher just moves down a string as below )
d e f g

G------------------|--------------------|--------------------|--------------777----
D-x7p5-------55-77-|-x7p5---------------|-x7p5-------55-77---|-x7p5----------------
A-----7p5-55-------|-----7p5-55---333---|-----7p5-55---------|------7p5-55---------
E------------------|--------------------|--------------------|---------------------


REPEAT PARTS D TO F AND FINISH WITH...

G------x7-8-9---------------------
D-x7-8----------------------------
A---------------------------------
E---------------------------------


BACK TO MAIN SONG AGAIN


OUTRO (this isn't exact but it doesn't sound too far away)

G-----------------------------------------------
D-----------------------------------------------
A-----------------------------------------------
E-1/5-x3--x2--0--1------------------------------


I know this isn't 100% accurate but it gives you a rough idea of how its played.



Enjoy :~)

Copyrights
Author: ?
Composer: ?
Publisher: ?
More details
Language: English

Reactions

CommonCrawl [Bot]

Follow Muzikum