Red Hot Chili Peppers
If You Have To Ask (Bass tab)

If You Have To Ask by the Red Hot Chili PePPeRs

this tab is missing a lot so if u know the other parts let me know
PePPeRs 01@aol.com

intro
g----------------------------------------------
d----------------------------------------------
a-------7--5---------------7--5--------------
e-0-----------7--5---------------7--5-------

chorus
g------4h5---------------------------------------
d------------0--3-x--5h6---0--3p0----------
a--5--------------------------------------3------
e--------------------------------------------------

that sounds rite when i play it
IF YOU KNOW STONE COLD BUSH--WHAT IT IS OR
BLACK EYED BLOND-------WRITE ME
or if u questions or comments write me
PePPeRs 01@aol.com
real name scott b

Copyrights
Author: ?
Composer: ?
Publisher: ?
More details
Language: English

Reactions

CommonCrawl [Bot]

Follow Muzikum