Red Hot Chili Peppers
Falling Into Grace (Bass tab)

Falling Into Grace
Red Hot Chili Peppers

Verse
Here's the Bass tab, the guitar uses some strange studio effects that make
figuring it out really tough.

G-|----------------------------------|-------------------------------------|
D-|----------------------------------|-------------------------------------|
A-|----------------2---3--2----------|------------------2---3--------------|
E-|-0h2-2-2-2-5----------------------|-2-2---2-2-2-5-----------------------|

What ever never knew that I A smile in your eyes
could feel so good

G-|----------------------------------|-------------------------------------|
D-|----------------------------------|-------------------------------------|
A-|----------------2---3--2----------|------------------2------------------|
E-|-0h2-2-2-2-5----------------------|-2-2---2-2-2-5--------2--------------|

What ever never knew that I I guess I never tried
could walk through wood

Chorus
Bass
G-|----------------------------------|-------------------------------------|
D-|----------------------------------|-------------------------------------|
A-|----------------------------------|-------------------------------------|
E-|-8--------------7-----------------|-0-----------------------------------|

Guitar
e-|---------3-3-3-3-----3-3-3-3---------|
B-|---------3-3-3-3-----3-3 3-3---------|
G-|-------------------------------------|
D-|-------------------------------------|
A-|-------------------------------------|
E-|-------------------------------------|

I'm falling into grace with you

The bass plays this little riff at the end of the chorus
G-|----------------------------------|-------------------------------------|
D-|----------------------------------|-------------------------------------|
A-|----------------------------------|-5----------4---------3--------------|
E-|-8--------------7-----------------|-------------------------------------|

Solo
e-|-2-------------------------3-2-3--|----------------6-------------3------|
B-|----------------------------------|-------------------------------------|
G-|----------------------------------|-------------------------------------|
D-|----------------------------------|-------------------------------------|
A-|----------------------------------|-------------------------------------|
E-|----------------------------------|-------------------------------------|

e-|-2h3p2p0h2------------------------|-------------------------------------|
B-|------------------5-4--------5----|-4----------------4------------------|
G-|----------------------------------|---5----------------------------5----|
D-|----------------------------------|-------------------------------------|
A-|----------------------------------|-------------------------------------|
E-|----------------------------------|-------------------------------------|

e-|----------------------------------|-------------------------------------|
B-|-4--------------------4---5---4---|-5/8-------7----------5---------4b5b-|
G-|---5p4p2h4--------5---------------|-------------------------------------|
D-|----------------------------------|-------------------------------------|
A-|----------------------------------|-------------------------------------|
E-|----------------------------------|-------------------------------------|

e-|---------------------------------|--------------------------------------|
B-|-4-------------------------------|--------------------------------------|
G-|---------------------------------|-7-------------6----------5----/15\---|
D-|---------------------------------|--------------------------------------|
A-|---------------------------------|--------------------------------------|
E-|---------------------------------|--------------------------------------|

Copyrights
Author: ?
Composer: ?
Publisher: ?
More details
Language: English

Reactions

CommonCrawl [Bot]

Follow Muzikum