Red Hot Chili Peppers
B & B - D A - Love Rollercoaster (Bass tab)

LOVE ROLLERCOASTER (Bassline)
As recorded by Red Hot Chili Peppers
(From the 1996 Album BEAVIS AND BUTTHEAD - DO AMERICA {SOUNDTRACK})



Words by Ralph Middlebrooks, James Williams, Marshall Jones, Leroy Bonner, Clarence Satchell, Willie Beck And Marvin R. Pierce Music by Anthony Keidis, Michael Balzary And Chad Smith



Gtr I (E A D G) - 'Standard'
Gtr II (E A D G) - 'Standard'


Intro
Moderate Funk/Rock Q=120
4/4
Gtr I
Wx9 H Q E. S Q E. S Q E. S E.S E.S Q S S S S
||------------|--------------|-------------------|------------------------||
||------------|--------------|-------------------|------------------------||
||------------|--------------|-------------------|------------------------||
||------------|------------5s|=17-----5s17-----5s|=12s5s13s5s15\--x-x---x-||


Pre-Chorus
$
Gtr II
E e E e E e E S S E e E e E e S S S S E e E e E e E S S
|-----------------------|-------------------------|-----------------------|
|----10----8----7-------|----7----8----10---------|----10----8----7-------|
|-----------------------|-------------------------|-----------------------|
|-/8----/6---/5-----x-x-|-/5---/6---/8------x-x-x-|-/8----/6---/5-----x-x-|


E e E e E e S S S S E e E e E e S S S S E e E e E e E S S
|-------------------------|-------------------------|------------------------|
|----7----8----10---------|----10----8----7---------|----7----8----10--------|
|-------------------------|-------------------------|------------------------|
|-/5---/6---/8------x-x-x-|-/8----/6---/5---x-5---5-|-/5---/6---/8------x-x--|


E e E e E e E S S E e E e E e S S S S E e E e E e E S S
|-----------------------|-------------------------|-----------------------|
|----10----8----7-------|----7----8----10---------|----10----8----7-------|
|-----------------------|-------------------------|-----------------------|
|-/8----/6---/5-----x-x-|-/5---/6---/8------6-6-7-|-/8----/6---/5-----x-x-|


To Coda
E e E e E e S S S S E e E e E e S S S S E e E e E e E S S
|--------------------------|-------------------------|------------------------|
|----7----8----10----------|----10----8----7---------|----7----8----10--------|
|-------------------10-----|-------------------------|------------------------|
|-/5---/6---/8----8----8-0-|-/8----/6---/5---x-5---5-|-/5---/6---/8------x-x--|


E e E e E e E S S E e E e E e S S S S
|-----------------------|--------------------------|
|----10----8----7-------|----7----8----10---8h10---|
|-----------------------|--------------------------|
|-/8----/6---/5-----x-x-|-/5---/6---/8----x------0-|


E e E e E e E S S E e E e E e E S S
|-----------------------|------------------------||
|----10----8----7-------|----7----8----10--------||
|-----------------------|------------------------||
|-/8----/6---/5-----x-x-|-/5---/6---/8------x-x--||


Chorus
Gtr I
Q E E E E Q Q E E E E Q Q E E S S S S E S S
|---------------|---------------|----------10----10-12-------|
|----5-5-5-5----|----5-5-5-5----|------/12----12-------8-----|
|---------------|---------------|----------------------------|
|-3-------------|-3-------------|-3----------------------1-1-|


Q E E E E Q Q E E E E Q Q E E E E Q E E +S E. Q. E
|---------------|---------------|---------------|-----------------------||
|----5-5-5-5----|----5-5-5-5----|----5-5-5-5----|-----------------------||
|---------------|---------------|---------------|---10-(10)-11--12\-----||
|-3-------------|-3-------------|-3-------------|-----------------------||


Verse
Gtr II
E e E e E e E S S E e E e E e S S S S E e E e E e E S S
|-----------------------|-------------------------|-----------------------|
|----10----8----7-------|----7----8----10---------|----10----8----7-------|
|-----------------------|-------------------------|-----------------------|
|-/8----/6---/5-----x-x-|-/5---/6---/8------7-8-7-|-/8----/6---/5-----x-x-|


E e E e E e S S S S E e E e E e E S S E e E e E e E S S
|--------------------------|-----------------------|-----------------------|
|----7----8----10---9-10---|----10----8----7-------|----7----8----10-------|
|--------------------------|-----------------------|-----------------------|
|-/5---/6---/8-----------7-|-/8----/6---/5-----x-x-|-/5---/6---/8------x-x-|


E e E e E e E S S E e E e E e E S S
|-----------------------|-----------------------||
|----10----8----7-------|----7----8----10-------||
|-----------------------|-----------------------||
|-/8----/6---/5-----x-x-|-/5---/6---/8------x-x-||


Pre-Chorus
E e E e E e S S S S E e E e E e S S S S E e E e E e S S S S
|-------------------------|-------------------------|--------------------------|
|----10----8----7---------|----7----8----10---------|----10----8----7---8s10---|
|-------------------------|-------------------------|------------------------0-|
|-/8----/6---/5---x-5---5-|-/5---/6---/8------7-8-7-|-/8----/6---/5------------|


E e E e E e E S S E e E e E e E S S E e E e E e E S S
|-----------------------|-----------------------|-----------------------|
|----7----8----10-------|----10----8----7-------|----7----8----10-------|
|-----------------------|-----------------------|-----------------------|
|-/5---/6---/8------x-x-|-/8----/6---/5-----x-x-|-/5---/6---/8------x-x-|


|-3-|
E e E e E e S S S S S S S S S S S S S S S S S S S S S
|-------------------------|-----------------------------------||
|----10----8----7---------|-----------------------------------||
|-------------------------|-----------------------------------||
|-/8----/6---/5---5-5-5-5-|-5-5-5-5-6-6-6---8-8-8---x-x---x-x-||


Chorus
Gtr I
E E E E Q Q E E E E S S S S
|---------------|--------------------|
|----5-5-5-5----|----5-5-5-5-5-3-5---|
|---------------|--------------------|
|-3-------------|-3------------------|
Q


Q E E E E Q q E E S S S S S S S S
|---------------|----/12-10---------------------|
|----5-5-5-5----|-----------12-11-10s8-8s10-8---|
|---------------|-------------------------------|
|-3-------------|-3-----------------------------|


|--3--|
Q E E E E Q Q E E E a Q. E
|---------------|--------15-17-17h19----|
|----5-5-5-5----|-----------------------|
|---------------|----/13----------------|
|-3-------------|-3---------------------|


~~~
Q E E E E Q E E +S E. Q S E.
|-------------------|---------------------------||
|-------------------|--------------------13h15--||
|----------/10------|---10-(10)-11--12\---------||
|-3--3-3-3-----10\--|---------------------------||


2nd Verse
D.S. al Coda
Wx7 H S S E Q
|------------|------------------||
|------------|------------------||
|------------|------------/12\--||
|------------|--------3s8-------||


Chorus/Outro
&
Q E E E E Q Q E E E S S S S E
|---------------|-------/12-10-10-10-10--------|
|---------------|-----------------------12-10\-|
|---------------|------------------------------|
|-3--3-3-3-3----|-15---------------------------|


Q E E E E Q Q E S S E E E E
|---------------|------12-10-----------|
|---------------|------------8-8-8-12--|
|---------------|----------------------|
|-3--3-3-3-3----|-3--------------------|


Q E E E E Q E E E E Q Q Q E E E E Q
|---------------|---------------|---------------|
|--------5-5----|---5-5-5-5-----|----5-5-5-5----|
|---------------|---------------|---------------|
|-3--3-3--------|-3-------------|-3-------------|


E E E S S S S E S S S S
|------/19-17-15----17-15-15----------|
|----------------17-------------------|
|-10-------------------------17-17-17-|
|-------------------------------------|


Q E E E E E E Q S S S S e e S S E
|----------------|------12-10-------12-------|
|----5-5-5-5S8-8-|------------12-12----8-8-8-|
|----------------|---------------------------|
|-3--------------|-3-------------------------|


Q E E E E Q H E S S S S E
|---------------|------5-5-5-5-5-5--|
|---------------|-5-----------------|
|---------------|-5-----------------|
|-3--3-3-3-3----|-------------------|


Q E E E E Q E S S E E E E S S E
|---------------|-------------10--------------|
|----5-5-5-5----|----------------12-10-8h10-8-|
|---------------|-10-10-10-10-----------------|
|-3-------------|-----------------------------|


Q E E E E Q E E E S S E E E E
|---------------|--------------------|
|--------5-5----|---5-5--------------|
|---------------|--------------------|
|-3--3-3--------|-3-------0-1-1-1-2--|


Q E E E E Q Q E S S S S S S Q Q S E S E E S S E
|---------------|-------------------10-12\--|----12-10-10-12-10-12-10-----|
|---------------|-----------8-10s12---------|-------------------------12--|
|---------------|------8h10-----------------|-----------------------------|
|-3--3-3-3-3----|-3-------------------------|-3---------------------------|


E E S S E S S E S S E
|-10----------------------------|
|----12-11-10-8-10-8----8-------|
|--------------------10---10p8\-|
|-------------------------------|


Q S S S S S S S S S S S S S S E Q a H
|----------------------------|----------17h19----|
|----5-5-5-5-5-5-5-5---7-7-7-|-5-5-5-------------|
|----------------------------|-------------------|
|-3------------------5-------|-------------------|


Q E E S S E Q W
|-----------------|------||
|----5-5-5-5-5----|------||
|-----------------|------||
|-3---------------|-3----||


~
Q S S S S S S S S S S S S
||-----------------------------|
||o----5-3---------------------|
||o--------5-4-3-0-1-3-1-0-1-3-|
||--3--------------------------|


~ ~
Q S S S S S S E +E E Q S S S S S S S S S S S S
|----------------------------|------------------------------|
|----5-3---------------------|----5-3-----------------------|
|--------5-4-3-0-------------|--------5-4-3-0-1-3-1-0-1-3---|
|-3--------------1-(1)b2r(1)-|-3----------------------------|


~~
E. S e S S S +E S S S S S Q E E E E E E
|-------------------------------||----------------|
|----0-3-----------------------o||----5-5-5-5-5---|
|--------3-1-3b4r(3)p1-3-1-----o||----------------|
|-3------------------------3-1--||-3--------------|


Q E E E E E E Q E E E E E S S
|----------------|-------------------|
|----5-5-5-5-5---|----5-5-5-5-5---5--|
|----------------|-------------------|
|-3--------------|-3-----------------|


E. S E. S +E S S Q Q E E E E E E
|-12--------12-(12)S15-15-17\--|----------------|
|-----0-12---------------------|----5-5-5-5-5---|
|------------------------------|----------------|
|------------------------------|-3--------------|


Q E E E E E E Q E E E E E E
|----------------|-----------------|
|----5-5-5-5-5---|----5-5-5-5-5----|
|----------------|-----------------|
|-3--------------|-3---------------|


Q E E E E E E E S S S S S S S S S S S S S S
|----------------|-------------------------------|
|----5-5-5-5-5---|---0-3---0-3-------3-----3-----|
|----------------|-------------5-4-5---4-5---1---|
|-3--------------|-3---------------------------1-|


S S S S S S S S S S S S S S S S
|----------------------------------|
|-----------------------7---8---10-|
|----------------------------------|
|-3-3---3---3-3-3---3s5---6---8----|


S S S S E S S S S S S S S S S E S S S S S S S S S S E. S
|-------------------------------|----------------------------|
|-------------------------------|----------------------------|
|-------------------3-------1-0-|---3---1---1-3-1---1-3------|
|-3-3---3---3-3---3---3-1-3-----|-3---3---3-------3-----0--1-|


E. S S S S S S S S S S S S S S S S S S S S S S S E S S E
|------------------------------|-----------------------------|
|------------------------------|-------------------3-----3---|
|--------------------3-1---1p0-|-------------1-3-5-----5---5-|
|-3--3---3-3-3---3-------3-----|-3-3---3-3-3-----------------|


Q S S S S E e S S S S S S S S S S e E E E E
|------------------------|-----------------------|
|------3-2---3-----------|-----------------7---8-|
|--------------1---1-3---|-----------------------|
|-3--------------------1-|-3-3---3---x-3S5---6---|


E. S S S S S S S S S S S S S S S S S S S S S S S S S Q
|------------------------------|-------------------------10------|
|------------------3---3-5-8p7-|-------------3h5-8-10s12----12\--|
|----------------5---5---------|-----------5---------------------|
|-3--3---3-3-3-----------------|-3-3---3-------------------------|


S S S S S S S S S S S S S S E e e e e e e e e
|-------------------------------|-----------------*|
|---------------------------3---|-2-3-2-----------*|
|-------------------1---3s5-----|-------3-1-3-1-0-*|
|-3-3---3-3-3-1-2-3-------------|-----------------*|




--------------------------------------------------------------------------------


Duration Legend
---------------
W - whole; H - half; Q - quarter; E - 8th; S - 16th; T - 32nd; X - 64th; a - acciaccatura
+ - note tied to previous; . - note dotted; .. - note double dotted
Uncapitalized letters represent notes that are staccato (1/2 duration)
Irregular groupings are notated above the duration line
Duration letters will always appear directly above the note/fret number it represents the
duration for. Duration letters with no fret number below them represent rests. Multi-
bar rests are notated in the form Wxn, where n is the number of bars to rest for. Low
melody durations appear below the staff

Tablature Legend
----------------
h - hammer-on
p - pull-off
b - bend
pb - pre-bend
r - bend release (if no number after the r, then release immediately)
/\ - slide into or out of (from/to "nowhere")
s - legato slide
S - shift slide
- natural harmonic
[n] - artificial harmonic
n(n) - tapped harmonic
~ - vibrato
tr - trill
T - tap
TP - trem. picking
PM - palm muting
\n/ - tremolo bar dip; n = amount to dip
\n - tremolo bar down
n/ - tremolo bar up
/n\ - tremolo bar inverted dip
= - hold bend; also acts as connecting device for hammers/pulls
- volume swell (louder/softer)
x - on rhythm slash represents muted slash
o - on rhythm slash represents single note slash

Misc Legend
-----------
| - bar
|| - double bar
||o - repeat start
o|| - repeat end
*| - double bar (ending)
: - bar (freetime)
$ - Segno
& - Coda
Tempo markers - = BPM(8/16=s8/s16), where s8 = swing 8ths, s16 = swing 16ths

Copyrights
Author: ?
Composer: ?
Publisher: ?
More details
Language: English

Reactions

CommonCrawl [Bot]

Follow Muzikum