Red Hot Chili Peppers
By The Way Ver 6 (Bass tab)

Red Hot Chili Peppers - By the way
(from the album "By the way")

Bass tab - tabbed by BsSm (francesco.lurgo@genie.it)

Intro:
1|-----------------|
2|-7-7-7-7-7-7-7-7-|
3|-----------------|x 3
4|-----------------|

Chorus figure:
1|------------------------------------------------------------------|
2|-12-12-12-12-12-12-12-12-15-15-15-15-15-15-15-15-19-19-19-12-10---|
3|---------------------------------------------------------------12-|
4|------------------------------------------------------------------|

1|-----------------------------------------------------------|
2|-7-7-7-7-7-7-7-7-12-12-12-12-12-12-12-12-15-15-15-12-10----|
3|--------------------------------------------------------12-|
4|-----------------------------------------------------------|

Verse figure:
1|-------------------------------------------------------|
2|----0-3-----------0-3-----------0-3-----------0-3-3----|
3|--3-----0-3-5---3-----0-3-5---3-----5-3-0---3-------5^-|
4|-------------------------------------------------------|

SONG STRUCTURE:

Intro

Chorus 1: chorus fig. x2

Verse x4

Chorus 2: 2nd part of chorus fig. x2

Bridge (with wah-wah vocals): verse fig.x1

Verse x4

Chorus 3: part 2 of chorus fig.,then part 1, then repeat all this

Bass solo: verse fig. x1

Verse x2

Chorus 4:part 2 of chorus fig. x4

Outro only guitar

Copyrights
Author: ?
Composer: ?
Publisher: ?
More details
Language: English

Reactions

CommonCrawl [Bot]

Follow Muzikum