Red Hot Chili Peppers
By The Way Ver 2 (Bass tab)

By The Way
Red Hot Chili Peppers
Tabbed by pIRHANA

Tips - Never use a pick, never ever, never never never never never!
Such a restraint on what you can do on the bass if you use a pick.

- Try slapping and pulling on the chant, more fun and looks better :-)

- I still love the chili's but it makes me sad they have gone away from the
fast paced crazy funk from the 80's and awesomness of one hot minute and
blood sex sugar magik. You must all go buy freaky styley!
CHORUS

G--17-17-17-17-17-17-17-17-17-17-17-17-17-17-17-17-|-9-9-9-9-9-9-9-9-|
D--15-15-15-15-15-15-15-15-14-14-14-14-14-14-14-14-|-7-7-7-7-7-7-7-7-|x(2)
A--------------------------------------------------|-----------------|
E--------------------------------------------------|-----------------|

G--17-17-17-17-17-17-17-17-21-21-21-21-21-21-21-21-9-9-9-9-9-9-9-9-9-9-9-9-9-9-21-21-19-19-
D--15-15-15-15-15-15-15-15-19-19-19-19-19-19-19-19-7-7-7-7-7-7-7-7-7-7-7-7-7-7-19-19-17-17-
A------------------------------------------------------------------------------------------
E------------------------------------------------------------------------------------------

G--17-17-17-17-17-17-17-17-17-17-17-17-17-17-17-17-|-9-9-9-9-9-9-9-9-|
D--15-15-15-15-15-15-15-15-14-14-14-14-14-14-14-14-|-7-7-7-7-7-7-7-7-|x(2)
A--------------------------------------------------|-----------------|
E--------------------------------------------------|-----------------|

G--17-17-17-17-17-17-17-17-|-21-21-21-21-21-21-21-21-|
D--15-15-15-15-15-15-15-15-|-19-19-19-19-19-19-19-19-|x(2)
A--------------------------|-------------------------|
E--------------------------|-------------------------|

CHANT

G-------------------------
D-----------3-------------
A-----0h3h5---0h3h5-x3h5--
E-0-0---------------------

G-------------------------
D-----------3-------------
A-----0h3h5---0h3h5-------
E-0-0---------------x3h5--

G-------------------------
D-----------3-------------
A-----0h3h5---0h3h5-x3h5--
E-0-0---------------------

G-------------------------
D---------3---------------
A-----3h5---0x(3)-555555--
E-0-0---------------------

VERSE

G-------------------------------------------------------
D-3-3-x3-3x/-10-10-10x-10-12-12-1212x-12-12-12p10-------
A-------------------------------------------------12----
E-------------------------------------------------------

G--------------------------------------------------------
D--3-333-3-/-10-101010-7-777-7-7-7-7-77-7-77-----x10--10-
A--------------------------------------------------------
E--------------------------------------------------------

Some variations missing that i cant be bothered tabbing out so just work em' out
or better still, just improvise. Enjoy and forget rock and punk, listen to jazz and funk!

Copyrights
Author: ?
Composer: ?
Publisher: ?
More details
Language: English

Reactions

CommonCrawl [Bot]

Follow Muzikum