Red Hot Chili Peppers
By The Way Live (Bass tab)

Intro: Bass comes in at 00:16

G-----------------------------------------------------------------------------------
D-----------------------------10-10-10-10-10-10-10-10----7-7-7-7-7-7-7-7------------
A---19\8-8-8-8-8-8-8-8--------------------------------------------------------------
E-----------------------------------------------------------------------------------

G-5/17-17-17-17-17-17-17-17--21-21-21-21-21-21-21-21--14-14-14-14-14-14-14-14--------
D------------------------------------------------------------------------------------
A------------------------------------------------------------------------------------
E------------------------------------------------------------------------------------

Verse:

G-------------------------------------------------------------------------------
D----------3----------------3------------------3-----------------------------
A------3h5---3h5---------3h5--3h5-----------3h5--3h5----------3h5-535/6666----
E--0-0----------3h5---0-0---------0h3---0-0---------3h5---0-0----------------

Chorus:

G---------------------------------------7-7-7-7-7--9-9-9-9-9-9-9-9-9-9----------
D--------------------10-10-10-10-10---------------------------------------------
A-----8-8-8-8-8-----------------------------------------------------------------
E-------------------------------------------------------------------------------

G---------------------------------------------------------------------------------
D--------------------10-10-10-10-10-------7-7-7-77---8-8-8-8-8---------------------
A----8-8-8-8-8-------------------------------------------------------------------
E---------------------------------------------------------------------------------

That�s all the parts you need to play. Just listen to the song, and fit each part where needed.

This is my 1st tab, now improved

Copyrights
Author: ?
Composer: ?
Publisher: ?
More details
Language: English

Reactions

CommonCrawl [Bot]

Follow Muzikum