Red Hot Chili Peppers
Buckle Down (Bass tab)

Red Hot Chili Peppers
Buckle down
Tabbed by Truijllo

Main
G |---------------------------------------------------------------------
D |---------------------------------------------------------------------
A |-0-2-3---0-2-3---0-2-3-----------------------------------------------
E |------------------------1/0--1/0-------------------------------------
S S
Verse 2
G |---------------------------------------------------------------------
D |--5-4-2---------3----------3-*-2-3-------------------/6-5-4h5p0------
A |---------5--2-3-----5--2-3----------5--2-3---5--2-3------------------
E |---------------------------------------------------------------------

Verse 3
G |---------------------------------------------------------------------
D |---------------------------------------------------------------------
A |---------------------------------------------------------------------
E |--3-2-1-0--0--0-0-0--3-----------------------------------------------

Slap part
G |----------------------------------------------------------0-0-0-0-0--
D |-----2-2p0-----0--2-0-2--2-2p0---0-2-0-2--2-2p0---0-2-0-2------------
A |------------4------------------4----------------4--------------------
E |-0-0-----------------------------------------------------------------
S S P P S P P P P P P S P P P P P P S P P P P P P P P P

Copyrights
Author: ?
Composer: ?
Publisher: ?
More details
Language: English

Reactions

CommonCrawl [Bot]

Follow Muzikum