Red Hot Chili Peppers
Breaking The Girl (Bass tab)

Breaking the Girl By the Red Hot Chili Peppers
==============================================
TABbed in BTC by Bucky LaDieu
Originally from the RHCP Guitar & Bass TAB Book

Standard tuning
$$$ = Sign
DS = DS

+-----------+---------+---------+---------+-----------+-------+---------+
|3:---6---6-|-----4-6-|---6---6-|---6-4---|---6---6---|-----4-|---6---6-|
|4:-----6---|---6-----|-----6---|-------6-|-----6---6-|---6---|-----6---|
+---4-------+-4-------+-4-------+-4-------+-4---------+-4-----+-4-------+

$$$
+---------+----------+----------+---------+---------+---------+-----------+
|---6---6-|---6---6-*|*---6---6-|-----4-6-|---6---6-|---6-4---|---6---6---|
|-----6---|-----6---*|*-----6---|---6-----|-----6---|-------6-|-----6---6-|
+-4-------+-4--------+--4-------+-4-------+-4-------+-4-------+-4---------+

4
+-------+---------+---------+----------+---------+---------+-------+-------+
|-----4-|---6---6-|---6---6-|---6---6-*|---6---6-|---6---6-|-------|---1-4-|
|---6---|-----6---|-----6---|-----6---*|-----6---|-----6---|-2-2-2-|-2-----|
+-4-----+-4-------+-4-------+-4--------+-4-------+-4-------+-------+-------+


+-------+-------+---------+-------+-------+-------+-------+-------+-------+
|-------|-------|---6---6-|-----4-|-6-6-6-|-6-4---|-------|---1-4-|-------|
|-------|-4---1-|-----6---|---6---|-------|-----6-|-2-2-2-|-2-----|-------|
+-2-2-2-+---2---+-4-------+-4-----+-------+-------+-------+-------+-2-2-2-+


e^e^e
+-----------+---------+-------+-------+-------+--------+-------+-------+-------+
|-----------|---------|-------|-2-2-2-|-2---2-|*-------|-------|-------|-------|
|-----------|---------|-----2-|-------|---2---|*-------|-------|-------|-4-4-4-|
+-2-2-2-4-2-+-0-0-0-0-+-0-0---+-------+-------+--4-4-4-+-6-6-6-+-7-7-7-+-------+

_________
1
+-------+-------+-------+-------+-------+-------+-------+-------+-------+
|-------|-------|-------|-------|-------|-------|-------|-------|-------|
|-6-6-6-|-4-4-4-|-------|-------|-------|-------|-------|-4-4-4-|-7-7-7-|
+-------+-------+-7-7-7-+-6-6-6-+-4-4-4-+-6-6-6-+-7-7-7-+-------+-------+

_________________________ _________________________________
|2 DS
+-------+-------+--------+-------+-------+-------+---------+----------+
|---8-6-|-8-6-8-|-9-8-6-*|-------|-------|-------|---------|*---6---6-|
|-7-----|-------|-------*|-7-7-7-|-7-7-7-|-7-7-7-|-6-6-6-6-|*-----6---|
+-------+-------+--------+-------+-------+-------+---------+--4-------+

8
+---------+---------+--------+-------+-------+-------+-------+-------+-------+
|---6---6-|---6---6-|-------*|-------|-------|-------|-------|-------|-------|
|-----6---|-----6---|-------*|-------|-------|-------|-4-4-4-|-6-6-6-|-4-4-4-|
+-4-------+-4-------+-7-7-7--+-4-4-4-+-6-6-6-+-7-7-7-+-------+-------+-------+


+-------+-------+-------+-------+-------+-------+-9-9-9-+-9-----+---6---+
|-------|-------|-------|-------|-------|-------|-------|---6-8-|-9---9-|
|-------|-------|-------|-------|-------|-4-4-4-|-------|-------|-------|
+-7-7-7-+-6-6-6-+-4-4-4-+-6-6-6-+-7-7-7-+-------+-------+-------+-------+


+-------+-------+-------+-------+-------+-------+-------+-------+-------+
|-8-9-6-|-------|-------|-------|-------|-------|-------|-------|-------|
|-------|-------|-------|-------|-4-4-4-|-6-6-6-|-4-4-4-|-------|-------|
+-------+-4-4-4-+-6-6-6-+-7-7-7-+-------+-------+-------+-7-7-7-+-6-6-6-+


+-------+-------+-------+-------+-------+----------+-------------+-------------+
|-------|-------|-------|-------|-------|---6-6-8--|-9-8-9-6-8-6-|---6-8-9-8-6-|
|-------|-------|-------|-4-4-4-|-------|-7--------|-------------|-9-----------|
+-4-4-4-+-6-6-6-+-7-7-7-+-------+-7-7-7-+----------+-------------+-------------+


+-------+-------+-------+-------+-------+-------+-------+-------+---+---+---+---+
|-------|-------|-------|-------|-------|-------|-------|-------|-6-|-5-|---|---|
|-------|-------|-------|-4-4-4-|-6-6-6-|-4-4-4-|-------|-------|---|---|-6-|-4-|
+-4-4-4-+-6-6-6-+-7-7-7-+-------+-------+-------+-7-7-7-+-6-6-6-+---+---+---+---+


+-------+-------+-------+-------+-------+-------+-------+-------+-------+-------+
|-------|-------|-------|-------|-------|-------|-------|-------|-------|-------|
|-7-7-7-|-7-7-7-|-7-6-4-|-4-2---|-------|-------|-------|-4-4-4-|-6-6-6-|-4-4-4-|
+-------+-------+-------+-----4-+-4-4-4-+-6-6-6-+-7-7-7-+-------+-------+-------+


+-------+-------+-------+-------+-------+-------+-------+-------+-------+-------+
|-------|-------|-------|-------|-------|-------|-------|-------|-------|-------|
|-------|-------|-------|-------|-------|-4-4-4-|-7-7-7-|-7-----|-------|-4-----|
+-7-7-7-+-6-6-6-+-4-4-4-+-6-6-6-+-7-7-7-+-------+-------+---4-6-+-7-6-4-+---7-6-+


+-------+-------+-------+-------+-------+-------+-------+-------+---+---+---+---+
|-------|-------|-------|-------|-------|-------|-------|-------|-6-|-5-|-6-|-8-|
|-------|-------|-------|-4-4-4-|-6-6-6-|-4-4-4-|-------|-------|---|---|---|---|
+-4-4-4-+-6-6-6-+-7-7-7-+-------+-------+-------+-7-7-7-+-6-6-6-+---+---+---+---+


+-------+--------+-------+-------++
|-------|--------|-------|-------||
|-7-7-7-|-7---7--|-7---7-|-7-6---||
+-------+---9----+---9---+-----9-++

==========================================================================

Created using the Bass Tab Creator
__ by Mario D'Alessio (motcid!marble!dalessio)
+|oo|+
+|oo|+ Notes: w = Whole h = Half q = Quarter
|| e = 8th s = 16th t = 32nd x = 64th
||
|| Capital durations are dotted notes
|| (equal to 1.5 times the duration value)
||
|| #
|| +----+ +----+
_ || _ |*--*+ = MEASURE |4:--| = TIME
\\_||_// |*--*+ REPEATS |4:--| SIGNATURES
| [] | +----+ (#=Num Repeats) +----+
| || |
/ [] \ + = TIE ^ = TRIPLET > = BEND
\______/ H = HAMMER ON \ = SLIDE TO FRET R = Rest
P = PULL OFF \X = SLIDE TO NOWHERE ~ = Trill

Copyrights
Author: ?
Composer: ?
Publisher: ?
More details
Language: English

Reactions

CommonCrawl [Bot]

Follow Muzikum