Red Hot Chili Peppers
1aeroplane (Bass tab)

Red Hot Chili Peppers
Aeroplane
Atreyubasskid

I only know the verse and the chorus. This is the best song and this is a song that is amazing.

Chorus:
G--------------------------------------------------------|
D--------------------------------------------------------|
A-10~~~~~-0-1--3~~~~~~-----------------------------------|
E-----------------------0-1------------------------------|
BEND BEND
Verse:
G------------------7--7------5--5-----------------------------|
D-----5--5-----------------------------3--5--5----------------|
A---------------5-------4-3-------5-6-------------------------|
E--3--x--x--5-6------------------------x--x--x----------------|
T P P T T T P P T T P P T T P P P

Thanks.

Copyrights
Author: ?
Composer: ?
Publisher: ?
More details
Language: English

Reactions

CommonCrawl [Bot]

Follow Muzikum