Red Hot Chili Peppers
09 Emit Remmus (Bass tab)

Song: Emit Remmus
Band: Red Hot Chili Peppers
Album: Californication
Bassist: Flea
Tabber: Ash

This song kinda gets your fingers in a mess
sometimes so for the first bar I have put
finger placements so you won't get mixed up.
Key:
/- finger symbol
1- index finger
2- middle finger
3- ring finger
4- pinkie

Intro/verse 1:

G|---------------------|---------------------|
D|-------6p5h6p5h6-----|-------6p5h6p5h6-----|
A|-6-8-8---------------|-6-8-8---------------|
E|---------------------|-----------------6---|
/|-1-4-4-2-1-2-1-2-----|-1-4-4-2-1-2-1-2-3---|

Verse 1 part 2:

G|---------------------|---------------------|
D|-------6p5h6p5h6-6-6-|-------6p5h6p5h6-----|
A|-6-8-8---------------|-6-8-8---------------|
E|---------------------|-----------------6-6-|

Chorus 1:

G|-----------------|-----------------|
D|---------6-6-x-x-|---------6-6-----|
A|-6-8-8-8---------|-6-8-8-8---------|
E|-----------------|-------------6-6-|

Verse 2:

G|---------------------|---------------------|
D|-------6p5h6p5h6-----|-------6p5h6p5h6-----|
A|-6-8-8---------------|-6-8-8---------------|
E|---------------------|-----------------6---|

Verse 2 part 2:

G|---------------------|---------------------|
D|-------6p5h6p5h6-6-6-|-------6p5h6p5h6-----|
A|-6-8-8---------------|-6-8-8---------------|
E|---------------------|-----------------6-6-|

Chorus 2:

G|-----------------|-----------------|
D|---------6-6-x-x-|---------6-6-----|
A|-6-8-8-8---------|-6-8-8-8---------|
E|-----------------|-------------6-6-|

Interlude:

G|------------------|-----------------|
D|------------------|-----------------|
A|-3------3---3-3---|-----------------|
E|----------------0-|-4-----4---4-4-4-|

G|------------------|-----------------|
D|------------------|-----------------|
A|------------------|-----------------|
E|-6------6---6-6-0-|-1-1-1-1-1-1-1-1-|

G|------------------|-----------------|
D|------------------|-----------------|
A|-3---3-5-6-5---3--|-----6-5-----3---|
E|------------------|-4---------4---4-|

G|------------------|-----------------|
D|------------------|-----------------|
A|------------------|-----------------|
E|-6------6---6-6-0-|-1-1-1-1-1-1-1-1-|


G|------------------|-----------------|
D|---------3--------|-----------------|
A|-3---5-6---6-5-3--|-----6-5-----3---|
E|------------------|-4---------4---4-|

G|------------------|-----------------|
D|------------------|-----------------|
A|------------------|-----------------|
E|-6------6---6-6-0-|-1-1-1-1/13-13-13|

G|------------------|-----------------|
D|------------------|-----------------|
A|-3---3-5-6-5---3--|-----6-5-----3---|
E|------------------|-4---------4---4-|

G|------------------|-----------------|
D|------------------|-----------------|
A|------------------|-----------------|
E|-6------6---6-6-0-|-1-1-1-1-1-1-1-1-|

Verse 3:

G|---------------------|---------------------|
D|-------6p5h6p5h6-----|-------6p5h6p5h6-----|
A|-6-8-8---------------|-6-8-8---------------|
E|---------------------|-----------------6---|

Verse 3 part 2:

G|---------------------|---------------------|
D|-------6p5h6p5h6-6-6-|-------6p5h6p5h6-----|
A|-6-8-8---------------|-6-8-8---------------|
E|---------------------|-----------------6-6-|

Chorus 3:

G|------------------|-----------------|
D|---------6-6------|---------6-6-----|
A|-6-8-8-8----------|-6-8-8-8---------|
E|------------------|-------------6-6-|

Ending:

G|------------------|-----------------|
D|---------6-6------|---------6//11\\-|
A|-6-8-8-8----------|-6-8-8-8---------|
E|------------------|-----------------|

I'm sure this is right. Please rate this tab too. Cheers.
Flea Rules!!!

Copyrights
Author: ?
Composer: ?
Publisher: ?
More details
Language: English

Reactions

CommonCrawl [Bot]

Follow Muzikum