Red Hot Chili Peppers
01 Around The World (Bass tab)

Around The World
Red Hot Chili Peppers
Californication
Flea

This is how I play it, it is near perfect but I am not including all
of it so go and buy the tab book if you want perfection.

Intro (with distortion):

G|-----------------|----------------|
D|-----------------|----------------|
A|-----------------|----------------|
E|-0---------------|-0---0---0---0--|

G|-------------------------------------------------|
D|-12h14-14-12h14-14-12h14-14-12h14p12-------------|
A|-------------------------------------14-13-12-10-|
E|-------------------------------------------------|

G|-------------------------------------------------|
D|-12h14-14-12h14-14-12h14-14-12-------------------|
A|-------------------------------14-13-12-10-------|
E|-------------------------------------------12-10-| X 4

G|----------------|
D|----------------|
A|----------------|
E|-\\\\3----------|

Verse (distortion off):

G|---------------|----------------|---------------|-----------------|
D|---------15-17-|----------14-15-|---------15-17-|--------15-14----|
A|---------------|----------------|---------------|--------------13-|
E|-3-------------|-1-0------------|-3-------------|-1-0-------------|

G|---------------|----------------|---------------|-----------------|
D|---------15-17-|----------14-15-|---------15-17-|-------3-2-------|
A|---------------|----------------|---------------|-----1-----1-0---|
E|-3-------------|-1-0------------|-3-------------|-1-3-------------|

G|---------------|----------------|---------------|-----------------|
D|---------15-17-|----------14-15-|---------15-17-|-----------------|
A|---------------|----------------|---------------|-----------------|
E|-3-------------|-1-0------------|-3-------------|-7//8^^--5//6^^--|

G|---------------|----------------|---------------|-----------------|
D|---------15-17-|----------14-15-|---------15-17-|-------------3-5-|
A|---------------|----------------|---------------|-----x1----5-----|
E|-3-------------|-1-0------------|-3-------------|-1-3-------------|

Chorus 1 (let notes ring):

G|---------5---8-|--------------7-|-7-----------5-|-----------------|
D|-6-------------|-5--------5-----|-----3----6----|-----------5-----|
A|---------------|----------------|---------------|-3------3--------|
E|---------------|----------------|---------------|-----------------|

G|---------5---8-|--------------7-|-7-----------5-|-----------------|
D|-6-------------|-5--------5-----|-----3----6----|-----------5~----|
A|---------------|----------------|---------------|-3------3--------|
E|---------------|----------------|---------------|-----------------|

G|----------------|
D|----------------|
A|----------------|
E|-20\\3----------|

Verse 2:

G|---------------|----------------|---------------|-----------------|
D|---------15-17-|----------14-15-|---------15-17-|--------15-14----|
A|---------------|----------------|---------------|--------------13-|
E|-3-------------|-1-0------------|-3-------------|-1-0-------------|

G|---------------|----------------|---------------|-----------------|
D|---------15-17-|----------14-15-|---------15-17-|-------3-2-3-2-3-|
A|---------------|----------------|---------------|-----1-----------|
E|-3-------------|-1-0------------|-3-------------|-1-3-------------|

G|---------------|----------------|---------------|-----------------|
D|---------15-17-|----------14-15-|---------15-17-|-----------------|
A|---------------|----------------|---------------|-----------------|
E|-3-------------|-1-0------------|-3-------------|-7//8^^--5//6^^--|

G|---------------|----------------|---------------|-----------------|
D|---------15-17-|----------14-15-|---------15-17-|-----------3-----|
A|---------------|----------------|---------------|-----1-----------|
E|-3-------------|-1-0------------|-3-------------|-1-3-------------|

Chorus 2 (let notes ring):

G|---------5---8-|--------------7-|-7-----------5-|-----------------|
D|-6-------------|-5--------5-----|-----3----6----|-----------5-----|
A|---------------|----------------|---------------|-3------3--------|
E|---------------|----------------|---------------|-----------------|

G|---------5---8-|--------------7-|-7-----------5-|-----------------|
D|-6-------------|-5--------5-----|-----3----6----|-----------------|
A|---------------|----------------|---------------|-3------10-/18^^-|
E|---------------|----------------|---------------|-----------------|

Interlude (with distortion):

G|-------------------------------------------------|
D|-12h14-14-12h14-14-12h14-14-12h14p12-------------|
A|-------------------------------------14-13-12-10-|
E|-------------------------------------------------|

G|-------------------------------------------------|
D|-12h14-14-12h14-14-12-12-14-12-------------------|
A|-------------------------------14-13-12-10-------|
E|-------------------------------------------12-10-| X 4

Verse 3 (distortion off):

G|---------------|----------------|---------------|-----------------|
D|---------15-17-|----------14-15-|---------15-17-|-15h17p15--------|
A|---------------|----------------|---------------|---------17-15^^-|
E|-3-------------|-1-0------------|-3-------------|-----------------|

G|---------------|----------------|---------------|-----------------|
D|---------15-17-|----------14-15-|---------15-17-|--------15-14----|
A|---------------|----------------|---------------|--------------13-|
E|-3-------------|-1-0------------|-3-------------|-1-0-------------|

G|---------------|----------------|---------------|-----------------|
D|---------15-17-|----------14-15-|---------15-17-|-------3-2-------|
A|---------------|----------------|---------------|-----1-----1-0---|
E|-3-------------|-1-0------------|-3-------------|-1-3-------------|

G|---------------|----------------|---------------|-----------------|
D|---------15-17-|----------14-15-|---------15-17-|-----------------|
A|---------------|----------------|---------------|-----------------|
E|-3-------------|-1-0------------|-3-------------|-7//8^^--5//6^^--|

G|---------------|----------------|---------------|-----------------|
D|---------15-17-|----------14-15-|---------15-17-|---------3---3-5-|
A|---------------|----------------|---------------|-----1-5---5-----|
E|-3-------------|-1-0------------|-3-------------|-1-3-------------|

Chorus 3:
I copied the most accurate version of the chorus (BLINK FAN's tab)
and pasted onto this tab. I'll change it when I can be bothered to
tab it out. Thanks BLINK FAN!!

G|-------8-|--------------------|-------------|---5-5-----------|
D|-6---6---|---5--5-------5---5-|-3-3-5-6-5-3-|-----------------|
A|---6-----|-5--5---------------|-------------|-3-------3---3---|
E|---------|--------3-3-3---3---|-------------|-------3---3---6-|

G|---------------|-----------|-------------------|----------------|
D|---------------|-----------|-------------------|--------------5-|
A|-------6-5-3---|-----------|-----------------6-|-3-3--3-6-6-8---|
E|-4-0-4-------6-|-3--3-3--3-|-1-1-3-3-4-4-6-6---|----------------|

G|-------|----------------|-------|-----------------|
D|-6---6-|---5---5--------|-3-5-3-|---5-------------|
A|---6---|-5---5----------|-------|-3---3-3-5-6-5-3-|
E|-------|---------3-3--3-|-------|-----------------|

G|-----------------|--------|---------------|
D|-----------------|--------|---3-5-6-5-3-1-|
A|-------6---------|--------|---------------|
E|-4-0-4---0-4-0-4-|-3-3--3-|-1-------------|

Ending:

G|-------|---------------|-------|
D|-------|---------------|-------|
A|-5-8-7-|-5--5--5--5--5-|-0-3-0-|
E|-------|---------------|-------| X 6

(Fill):
G|-------|---------------|-------|
D|---5---|---------------|-------|
A|-5---7-|-5--5--5--5--5-|-0-3-0-|
E|-------|---------------|-------|

G|-------|---------------|-------|
D|-------|---------------|-------|
A|-5-8-7-|-5--5--5--5--5-|-0-3-0-|
E|-------|---------------|-------| X 7

G|-------|----------------|-------|
D|-------|----------------|-------|
A|-5-8-7-|-5//10-10-10-10-|-0-3-0-|
E|-------|----------------|-------|

G|-------|------------------|
D|-------|------------------|
A|-5-8-7-|-5//12-12-12-12\\-|
E|-------|------------------|

Copyrights
Author: ?
Composer: ?
Publisher: ?
More details
Language: English

Reactions

CommonCrawl [Bot]

Follow Muzikum