Red Hot Chili Peppers
Give It Away Ver 5 (Bass tab)

verse

g----------------------
d------------12------
a-0-----12/14--3-3-0-
e----------------------

g--------------------
d-----------12-------
a-0----12/14----3-0--
e--------------------

chorus

g----------------------------------------
d----------------------------------------
a----------------------------------------
e-3-4-5-----3-4-5-----3-4-5--------3-4-5-

bridge(during guitar solo)

g--------12-------
d---12/14--------- x4
a-----------------
e-0---------3-3-0-



PLEASE RATE THIS TAB!!

IF YOU HAVE ANY COMMENTS OR CORRECTIONS PLEASE POST THEM!!

  • maste727

    Submitted by

    maste727 at Tue 24 Jun, 2003 7:13 pm

  • <
Copyrights
Author: ?
Composer: ?
Publisher: ?
More details
Language: English

Reactions

CommonCrawl [Bot]

Follow Muzikum