Red Hot Chili Peppers
Californication Ver 8 (Guitar tab)

Californication
Tabbed by John Couillard
Standard Tuning

Intro/Verse:
e-----------------------------------------
B------0-1--------------------------------
G------------------------------0-2--------
D----2------2-0h2p0-------------------0---
A--0-----------------3------3-----------3-
E-------------------------1---------------


Bridge:

e------0--------------------------------5-------
B---------------3---------1-------------6-------
G----0---0------------------------------5-------
D-------------0---0------------------7----------
A--3--------------------3---3------5------------
E-----------3---------1-------------------------


Pre-Chorus:
Am ?
e--0----0----
B--1----1----
G--2----2----
D--2----3----
A--0----3----
E------------



Chorus: Dream of Californication

C - G - Dm - Am then C - G-G - Dm. (G is hit twice quickly then to Dm)



Solo:

e-----9-----------------9----------------------------------
B--10----------------10------------------------------------
G--------11b(13)------------11b(13)---11-11-11--11p9-------
D----------------------------------------------------11-11-
A----------------------------------------------------------
E----------------------------------------------------------

e-----------------------------
B-----------------------------
G-------9----11b(13)---9------
D--9h11-------------------11--
A-----------------------------
E-----------------------------

e-------9-12-14---------9-12-14/16--14--
B---10--------------10------------------
G---------------------------------------
D---------------------------------------
A---------------------------------------
E---------------------------------------

e--17-16-14-12-14-12-9-12-9--9---9---9--12--912----
B---------------------------12b-12b-12b-------------
G---------------------------------------------------
D---------------------------------------------------
A---------------------------------------------------
E---------------------------------------------------

e--14/16\14--12----12-----------12-10-9-------
B---------------14----14-12-10-----------10---
G---------------------------------------------
D---------------------------------------------
A---------------------------------------------
E---------------------------------------------

supadad915@yahoo.com

  • DaEdge

    Submitted by

    DaEdge at Sun 08 Jun, 2003 2:18 pm

  • <
Copyrights
Author: ?
Composer: ?
Publisher: ?
More details
Language: English

Reactions

CommonCrawl [Bot]

Follow Muzikum