Red Hot Chili Peppers
Dont Forget Me Ver 7 (Bass tab)

BAND: Red Hot Chili Peppers
SONG: Don't Forget Me

INSTRUMENT: Bass
TUNING: Standard

TABBED BY: Chris Thomas, cthomas@mad.scientist.com

Probably the easiest song you'll ever come across.
Sorry I couldn't tab the solo because it is too hard to distinguish properly.

Intro/Verse. Play this for a very long time until chorus!

G|-----------------------------------------------------------------|
D|-----------------------------------------------------------------|
A|-----------------------------------------------------------------|
E|-5---------------1---------------8---------------3---------------|

Then for the chorus, play the first line 3 times, then the second line once.

G|-----------------------------------------------------------------|
D|-----------------------------------------------------------------|
A|-----------------------------------------------------------------|
E|-5---------------1---------------8---------------3---------------|

G|--------------------------------------------------------------------|
D|--------------------------------------------------------------------|
A|----------------------------------------------------10h12p10--------|
E|-5---------------1---------------8---------------12----------12-10-8|

  • CAcTuS

    Submitted by

    CAcTuS at Sun 25 May, 2003 1:53 pm

  • <
Copyrights
Author: ?
Composer: ?
Publisher: ?
More details
Language: English

Reactions

1 post

CommonCrawl [Bot]

hpbass Thu 22 Jul, 2004 1:13 am

this tab is def not correct, the riff is chords, not just single tones

1 post • Page 1 of 1

Follow Muzikum