Red Hot Chili Peppers
Californication Ver 7 (Guitar tab)

BAND: Red Hot Chili Peppers
SONG: Californication

INSTRUMENT: Guitar
TUNING: Standard

TABBED BY: Chris Thomas, cthomas@mad.scientist.com

Intro/Verse

E|--------------------------------------------------------------------------|
B|---------0---1------------------------------------------------------------|
G|------------------------------------------------0---1---------------------|
D|-----2---------------2---0h2p0------------------------------0-------------|
A|-0----------------------------h3--------------------------------2---------|
E|----------------------------------------1---3-----------------------------|

E|-0-------0-------0-0-0-0-0---0---0----0-------0-------0-0-0-0-0---0---0---|
B|-1-------1-------1-1-1-1-1---1---1----1-------1-------1-1-1-1-1---1---1---|
G|-2-------2---------------2---2---0----2-------2---------------2---2---0---|
D|-2-------2-------------------2---0----3-------3-------------------3---0---|
A|-0-------------------------------0----3-------------------------------0---|
E|--------------------------------------------------------------------------|

Chorus

E|-0-------0---0-0-3-------3---3-3-1-1---0-------0---0---|
B|-1-------1---1-1-0-------0---0-0-3-3---1-------1---1---|
G|-0-------0---0-0-0-------0---0-0-2-2---2-------2---2---|
D|-2-------2---2-2-0-------0---0-0-------2-------2---2---|
A|-3-------3---3-3-2-------2---2-2-----------------------|
E|-0-------0---0-0-3-------3---3-------------------------|

E|-0-------0---0-0-3-------3---3-3-0-0---1---------------|
B|-1-------1---1-1-0-------0---0-0-1-1---3---------------|
G|-0-------0---0-0-0-------0---0-0-2-2---2---------------|
D|-2-------2---2-2-0-------0---0-0-2-2-------------------|
A|-3-------3---3-3-2-------2---2-2-----------------------|
E|-0-------0---0-0-3-------3---3-------------------------|

  • CAcTuS

    Submitted by

    CAcTuS at Sun 25 May, 2003 1:34 pm

  • <
Copyrights
Author: ?
Composer: ?
Publisher: ?
More details
Language: English

Reactions

CommonCrawl [Bot]

Follow Muzikum