Red Hot Chili Peppers
Dosed Ver 4 (Guitar tab)

This is a great song but probably no one else would ever tab it so I put my version up. The chorus is not done very well because I�m new at this but if you figure out a better way please tab it for me.

Intro

e----------------------------------------------------------------------------------------------------------
b-0-0-3-0-0----0-0-3-0-0----0-0-3-0-0----0-3-5-3-------------------------------------------------
g---------------------------------------------------------------------------------------------------------
d---------------------------------------------------------------------------------------------------------
a ----------------------------------------------------------------------------------------------------------
e----------------------------------------------------------------------------------------------------------

verse
e-3------3------3---7-5-3-0-3-------------------------------------------------------------------------
b---5-0----5-0-------------------9-7-5-3-5-----------------------------------------------------------
g----------------------------------------------------------------------------------------------------------
d--------------------------------------------------------------------------------------------------------
a-------------------------------------------------------------------------------------------------------
e-------------------------------------------------------------------------------------------------------

interlude
e---------------------------------------------------------------------------------------------------------
b-0-0-3-0-0----0-0-3-0-0--------------------------------------------------------------------------
g---------------------------------------------------------------------------------------------------------
d------------------------------------------------------------------------------------------------------
a-------------------------------------------------------------------------------------------------------
e--------------------------------------------------------------------------------------------------------
Verse 2 is the same as verse one.

e-3------3------3---7-5-3-0-3------------------------------------------------------------------------
b---5-0----5-0--------------------9-7-5-3-5--------------------------------------------------------
g-----------------------------------------------------------------------------------------------------
d--------------------------------------------------------------------------------------------------------
a----------------------------------------------------------------------------------------------------------
e---------------------------------------------------------------------------------------------------------
chorus (rough draft)
e-3-3-3-3-5-5-5-5-8--8--8--8---75303-3-3-3-3-5-5-5-5-8--8-- 8� 8 3-3-3-3-5-5-5-5-8-8
b-5-5-5-5-7-7-7-7-10101010-----------5-5-5-5-7-7-7-7-10-10-10- 10-5-5-5-5-7-7-7-7-10-
g-4-4-4-4-6-6-6-6-9--9--9--9---------4-4-4-4-6-6-6-6--9-- 9--9-9--4-4-4-4-6-6-6-6-9-9
d-5-5-5-5-7-7-7-7-10101010-----------5-5-5-5-7-7-7-7-10-10-10- 10-5-5-5-5-7-7-7-7-10-
a-3-3-3-3-5-5-5-5-8--8--8�8----------3-3-3-3-5-5-5-5--8--8--8- 8--3-3-3-3-5-5-5-5-8-8
e------------------------------------------------------------------------------------------------------
then play the verse again


chorus 2
is the chorus again except play the 3 chord 11 times then play the 5 11 times.
7
6
7
5

then play the interlude except with 0353 on the b string the second time

then play the verse again

the solo

e-5-3-5-3-5-3-5-3-5-3-5-0-0-3-3--5-3-5-3-5-3-5-3-5-3-5-0-0-3-3-0-0-0-0--------------------b--------------------------------------------------------------------------------------5-3-3-0-0-35353
g-------------------------------------------------------------------------------------------------------
d-----------------------------------------------------------------------------------------------------
a----------------------------------------------------------------------------------------------------------
e-------------------------------------------------------------------------------------------------------

e-5-3-5-3-5-3-5-3-5-3-5-0-0-3�5-3-5-3-5-3-5-3-5-3-5-0-0-3-b5-b5-b5-b5-b5-b5-b3-b3-
b---------------------------------------------------------------------------------------------------------
g--------------------------------------------------------------------------------------------------------
d--------------------------------------------------------------------------------------------------------
a----------------------------------------------------------------------------------------------------
e-----------------------------------------------------------------------------------------------------

e-b3-b3-b3-b3-0-0-0-0-0-0-3-5---------------------------------------------------------------------

Copyrights
Author: ?
Composer: ?
Publisher: ?
More details
Language: English

Reactions

CommonCrawl [Bot]

Follow Muzikum