Red Hot Chili Peppers
Dosed Ver 2 (Guitar tab)

Artist: Red Hot Chili Peppers
Title: Dosed
Submitted by: Martina "StonedChicken"
Mail me: soleria@sms.at



C D Em
I got dosed by you
Closer than most to you
What am I supposed to do
Take it away I never had it anyway
Take it away and everything will be okay

In you a star is born
You cut a perfect form
Someone Forever warm
Lay on



Chorus

G D Em C
Way upon the mountain where she died
All I ever wanted was your life
Deep inside the canyon I can�t hide
All I ever wanted was your life


C D Em
Show love with no remorse
Climb onto your seahorse
This ride is right on course
This is the way I wanted it to be with you
This is the way I knew that it would be with you

Chorus

Repeat first Verse

Chorus

--------------------------------------------------------------------------------

on beginning:

one guitar:

e--------------0-------------0------------------------------------------------
h------------------------------------------------3------------------0---------
g---------0--------------0----------------2-------------------0---------------
D-----------------------------------0-----------------------------------------
A----3--------------3---------------------------------------------------------
E---------------------------------------------------------0-------------------




other guitar:

e-----------------------------------------------------------0-------
h----0----0----3----0----0--------------0----0----3------------0----
g-------------------------------------------------------------------
D-------------------------------------------------------------------
A-------------------------------------------------------------------
E-------------------------------------------------------------------





e--12------------12------------12------------12------------10------------10----------7---------7--------
h---------15-----------15------------15------------15------------10------------10---------8---------8---
g------------16-----------16------------16------------16-----------11-------------11---------9---------9
D-------------------------------------------------------------------------------------------------------
A-------------------------------------------------------------------------------------------------------
E-------------------------------------------------------------------------------------------------------


3:32

Lead1 � 2x

e-------19-----17-----15�14---15-----------------19---17------15�14�15----
h-------------------------------------------------------------------------
g-------------------------------------------------------------------------
D-------------------------------------------------------------------------
A-------------------------------------------------------------------------
E-------------------------------------------------------------------------


Lead2 � 2x

e------15---14-------12---10----12-----------------15----14----15-------12----10---12------
h------------------------------------------------------------------------------------------
g------------------------------------------------------------------------------------------
D------------------------------------------------------------------------------------------
A------------------------------------------------------------------------------------------
E------------------------------------------------------------------------------------------


Solo:
Time: 4:28

at the same time Lead2

e---------12---10----12---10---12----10----12----10----12----10----7---7----7-7-7--- 2x


e---------7---8-8-8�---8--------7------3�3�3---2---3�3----


e--------7-----8------7-----8------7�--8-----7-------3---2-2-2
h--------8----10�--8�-10�---8----10�-8-------5----------------


e----10----10�10�10�10------8---8----8�8�8----7-------7----------8/7----------10

Copyrights
Author: ?
Composer: ?
Publisher: ?
More details
Language: English

Reactions

CommonCrawl [Bot]

Follow Muzikum