Red Hot Chili Peppers
I Could Have Lied Ver 2 (Guitar tab)

this is my version of this song

e--------------------------------------------------
b--------------------------------------------------
g------------------------------------2--0----------
d-------0----4-----0-----4----0---4-------4---0----
a--0-h/2--2----2----2----2---2---------------------
e--------------------------------------------------
intro and also verses


e-----7-7-7--10-10-10-10-10--5-5-5--3-3-
b-----7-7-7--10-10-10-10-10--5-5-5--3-3-
g-----8-8-8--11-11-11-11-11--6-6-6--4-4-
d-----7-7-7--10-10-10-10-10--5-5-5--3-3-
a-----9-9-9--12-12-12-12-12--7-7-7--5-5-
e-----7-7-7--10-10-10-10-10--5-5-5--3-3-
I could never change the way I feel......


e---7-7-7--10-10-10-10-10--5-5-5-5--3-3-3-3--
b-6-6-6--9--9--9--9--9---4-4-4-4--2-2-2-2----
g---7-7-7--10-10-10-10-10--5-5-5-5--3-3-3-2--
d--------------------------------------------
a--------------------------------------------
e--------------------------------------------
could have lied I'm such a fool..............

my seguestion is to listen to the song so you can hear the parts as well
play them

Copyrights
Author: ?
Composer: ?
Publisher: ?
More details
Language: English

Reactions

CommonCrawl [Bot]

Follow Muzikum