Red Hot Chili Peppers
Breaking The Girl Ver 4 (Guitar tab)

breaking the girl
red hot chili peppers
blood sugar sex magik

tabbed by Nate

I find that this song sounds alot better like this
instead of doing what the other people did and it is alot
easier.

d=down strum
u=up strum
p=thumb

i won't put down the rythm just the time of chord change
and the strum pattern at the begining that the whole song
follows.

if possible use a twelve string guitar
(without sounds good too)

tune down one half step

|-0-0-0--0-0-0--0-0-0--0-0-0--0-0-0--0-0-0--0-0-0--0-0-0-|
|-2-2-2--2-2-2--2-2-2--2-2-2--4-4-4--5-5-5--5-5-5--5-5-5-|
|-2-2-2--2-2-2--2-2-2--2-2-2--4-4-4--5-5-5--5-5-5--5-5-5-|
|-2-2-2--2-2-2--2-2-2--2-2-2--4-4-4--5-5-5--5-5-5--5-5-5-|
|-0-0-0--0-0-0--0-0-0--0-0-0--0-0-0--0-0-0--0-0-0--0-0-0-|
|--------------------------------------------------------|
d u d u d u d u d u d u and so forth with triplets

|-0-0-0--0-0-0--0-0-0--0-0-0--0-0-0--0-0-0--0-0-0--0-0-0-|
|-7-7-7--7-7-7--7-7-7--7-7-7--9-9-9--101010 101010 101010|
|-7-7-7--7-7-7--7-7-7--7-7-7--9-9-9--9-9-9--9-9-9--9-9-9-|
|-7-7-7--7-7-7--7-7-7--7-7-7--7-7-7--111111-111111-111111|
|-0-0-0--0-0-0--0-0-0--0-0-0--0-0-0--0-0-0--0-0-0--0-0-0-|
|--------------------------------------------------------|
^
___/ 4x

Chorus:

---------------0-0-0--3-3-3-|-0------0------0------0-----|
-1-1-1--3-3-3--1-1-1--0-0-0-|-0-0----0-0----0-0----0-0---|
-2-2-2--0-0-0--0-0-0--0-0-0-|-1-1-1--1-1-1--1-1-1--1-1-1-|
-2-2-2--0-0-0--2-2-2--0-0-0-|-2-2-2--0-0-0--0-0-0--0-0-0-|
-0-0-0--2-2-2--3-3-3--2-2-2-|-2-2-2--2-2-2--3-3-3--2-2-2-|
----------------------3-3-3-|-0-0-0--0-0-0--0-0-0--0-0-0-|
twisting and turning... breaking the girl...

---------------0-0-0--3-3-3-|-0------0------0------0-----|
-1-1-1--3-3-3--1-1-1--0-0-0-|-1------1------1------1-----|
-2-2-2--0-0-0--0-0-0--0-0-0-|-2-2----2-2----2-2----2-2---|
-2-2-2--0-0-0--2-2-2--0-0-0-|-3-3-3--3-3-3--3-3-3--3-3-3-|
-0-0-0--2-2-2--3-3-3--2-2-2-|-3-3-3--3-3-3--3-3-3--3-3-3-|
----------------------3-3-3-|-1-1-1--1-1-1--1-1-1--1-1-1-|
p p p p p p p p p p p p
^
___/ 2X or so

and back to the verse and you can pretty much get the rest
from the song or the other tabs. sorry it isn't complete
but it is better and easier.

nate.

(The D String@aol.com)

Copyrights
Author: ?
Composer: ?
Publisher: ?
More details
Language: English

Reactions

CommonCrawl [Bot]

Follow Muzikum