Red Hot Chili Peppers
Parallel Universe Ver 3 (Guitar tab)

When I first started playing this song I didn't realise that the bass tab could be played on the guitar without de-tuning I got right on the case so here I have gone to the trouble of doing both for you

Riff 1 rpt X3

1-------------------------------------------------------------------------------
2-------------------------------------------------------------------------------3-8888888888888888888888888888888877777777777777777777
4-------------------------------------------------------------------------------
5-------------------------------------------------------------------------------
6-------------------------------------------------------------------------------

1-------------------------------------------------------------------------------
2-------------------------------------------------------------------------------
3-777777777777----------------------------------------------555555555
4-------------------3333333333333333555555555555555--------------
5-------------------------------------------------------------------------------
6-------------------------------------------------------------------------------

1-------------------------------------------------------------------------------
2-------------------------------------------------------------------------------
3-55555554444444444444444-------------------------------------------
4-------------------------------------------------------------------------------
5-------------------------------------------------------------------------------
6-------------------------------------------------------------------------------

Chorus X2

1-------------------------------------------------------------------------------
2-------------------------------------------------------------------------------
3--5----------------------8----------------------------------------------------
4--5---------5----6------8-------5--------5----------------------------------
5--3---------5----6------6-------5--------5----------------------------------
6------------3----4---------------3--------3----------------------------------Then
Riff 1 X2 and then play the chorus through 4 times then

Riff 2 X4

Bass enters then

1-------------------------------------------------------------------------------
2-------------------------------------------------------------------------------
3--888888--------------------------------------------------------------------
4-----------888888-5555----------------------------------------------------
5-------------------------------------------------------------------------------
6-------------------------------------------------------------------------------

Then John playes riff 1 twice and then the chorus four times and then he does some weird effects wich I can't figure out then it finishes, here's the Bass tab.

Riff 1 X3

1-------------------------------------------------------------------------------
2-------------------------------------------------------------------------------
3-------------------------------------------------------------------------------
4-------------------------------------------------------------------------------
5-33333333333333333333333333333333------------------------------ 6-------------------------------------------------66666666666666666666

1-------------------------------------------------------------------------------
2-------------------------------------------------------------------------------
3-------------------------------------------------------------------------------
4-------------------------------------------------------------------------------
5-------------------55555555555555556666666666666666
6-666666666666------------------------------------------------33333333
1-------------------------------------------------------------------------------
2-------------------------------------------------------------------------------
3-------------------------------------------------------------------------------
4-------------55553333------------------------------------------------------
5-------------------------66665555------------------------------------------
6-33333333------------------------------------------------------------------

Chorus

1-------------------------------------------------------------------------------
2-------------------------------------------------------------------------------
3-------------------------------------------------------------------------------
4-------------------------------------------------------------------------------
5-3rrrrrrrrrrrrr------6--------------------------------------------------------
6---------------3-4rrr--------3rrrrrrr3rrrrrrrrr------------------------------

Riff 2 X8

1-------------------------------------------------------------------------------
2-------------------------------------------------------------------------------
3-------------------------------------------------------------------------------
4-------------------------------------------------------------------------------
5-333333---------------------------------------------------------------------
6----------3344441111------------------------------------------------------

r = let ring



Deep inside of a parallel universe
It's getting harder and harder
To tell what came first and

Under water where thoughts can breathe easily
Far away you were made in a sea
Just like me
Chorus
Christ I'm a sidewinder I'm a California king
I swear it's every where it's everything
Staring straight up in to the sky
Oh my my a solar system that fits
In your eye microcosm

You could die but your never dead spider web
Take a look at the stars in
Your head fields of space kid

Chorus X2

Psychic changes are born in your heart entertain
A nervous breakthrough that makes us the same
Bless your heat girl

Kill the pressure it's raining on
Salty cheeks
When you hear the beloved song
I am with you

Chorus X2

Enjoy: Dan

Copyrights
Author: ?
Composer: ?
Publisher: ?
More details
Language: English

Reactions

CommonCrawl [Bot]

Follow Muzikum